Song name
# A B C D E F G H I J K L M N O P Q R S T U V W X Y Z

Ramy Sabry - Kelma tab

+-------------------------------------------+
|Artist : Ramy Sabry                        |
|Song   : Kelma                             |
|Album  : Ghamadht 3ini                     |
|Style  : Arabic                            |
|Tabber : Charfon                           |
|e-mail : achraf.bo@yahoo.fr                |
+-------------------------------------------+

This song is played with standard tuning.

Used chords :

D#m  x68876

A#m  x13321

F    133211

Fm   133111

F#   244211

G#   466544

Intro :

 Dm  Dm                 A#m  A#m                 
                                               
e |6---6-----------------|-1---1-----------------|  
b |7---7---6-7-9-7-6-----|-2---2-----1-2-4-2-1---|  
g |8---8-------------8---|-3---3---------------3-|  
d |8---8-----------------|-3---3-----------------|  
A |6---6-----------------|-1---1-----------------|  
E |----------------------|-----------------------|
                                               
                                               
 F   F                   F   F                
                                             
e |1---1-------------2-1-|-1---1-----------------|
b |1---1----1-2-4-2-1----|-1---1-----1-2-4-2-1---|
g |2---2-----------------|-2---2---------------3-|
d |3---3-----------------|-3---3-----------------|
A |3---3-----------------|-3---3-----------------|
E |1---1-----------------|-1---1-----------------|



A#m                           F
Kelam, kelma twaddik aw kilma tgibak
                     F#
mine elli allak inni 7asibak
                  G#
iw3a tsadda2 enni 7abibak
          F
7at houn 3alik


A#m                           F
erga3, erga3 we32al yalli btisma3
                     F#
aye kalam yet2allak 3anni
                     G#
3omri ma daya3 albak minni
          F
wa3mel kida lih


Chorus :
F#                         Fm                      
olli, olli ala2i ana zayak fine
                        F#
yalli mafich fi gamalak 2tnine
                        G#
howa e7na 3echret bassi youmine
             F
dana 3ayech lik

F#                            Fm     
wenta, wenta 7abibi 3aref min imta
                        F#
abli 3inaya ma tigui fi 3inik
                        G#
3ichti sinine wna ba7lam bik


A#m                           F
bas2al, bas2al nafsi ana kolli ma 2ablak
                       F#
kont ezzey 3ayech men ablak
                       G#
min albo 3alaya ghir albak
          F
ghirak mafich


A#m                           F
wallah, ye7ram wallah ennoum men 3ini
                        F#
winat 7abibi ghayeb 3an 3ini
                  G#
di de7ketak bit5allini
       F
adir a3ich

Chorus.

http://ramysabry.ws/forums/
Tap to rate this tab
 
# A B C D E F G H I J K L M N O P Q R S T U V W X Y Z