Song name
# A B C D E F G H I J K L M N O P Q R S T U V W X Y Z

Rancid - 11th Hour tab

this a great band, hope it works for you.

      intro:
   e------------------------------------------------------------------------|
   b-------5-5-----7-7------------------------------------------------------|
   g---5-5-5-5-5-5-7-7----2x------------------------------------------------|
   d---5-5-3-3-5-5-5-5------------------------------------------------------|
   a---3-3-----3-3----------------------------------------------------------|
   E------------------------------------------------------------------------|
      riff:
   e------------------------------------------------------------------------|
   b------------------------------------------------------------------------|
   g--12-11-12-11-12-11-12-11-12-11-12-11-12---14-14------------------------|
   d------------------------------------------------------------------------|
   a------------------------------------------------------------------------|
   E------------------------------------------------------------------------|
      verse:
   e------------------------------------------------------------------------|
   b------------------------------------------------------------------------|
   g---5-5-----5-5----------------------------------------------------------|
   d---5-5-3-3-5-5-5-5---------3-------5------------------------------------|
   a---3-3-3-3-3-3-5-5--3x-----3--4x---5---4x-------------------------------|
   E-------1-1-----3-3---------1-------3------------------------------------|
                        -REPEAT-
          chorus:
  e-------------------------------------------------------------------------|
  b-------------------------------------------------------------------------|
  g-----------5-------------------------------------------------------------|
  d----3------5---5x--3------5----------------------------------------------|
  a----3--5x--3-------3--5x--5--5x------------------------------------------|
  E----1--------------1------3----------------------------------------------|
                        -REPEAT-
  After the chorus, the bridge is the same as the intro.
                try it out.
Tap to rate this tab
# A B C D E F G H I J K L M N O P Q R S T U V W X Y Z