Song name
# A B C D E F G H I J K L M N O P Q R S T U V W X Y Z

Rancid - Bob tab

Help us improve GuitareTab! Take a short survey!
-------------------------------------------------------------------------------
			     Bob - Rancid
-------------------------------------------------------------------------------

e|----------------------------------------------------------------|
B|----------------------------------------------------------------|
G|----------------------------------------------------------------|
D|----------------------------------------------------------------|
A|----------------------------------------------------------------|
E|----------------------------------------------------------------|

The lyrics wont co incide with the tab, there just there to help you know where you are

Verse:

"he spent 15 years..."
e|------------------------------------------------------------------------------|
B|------------------------------------------------------------------------------|
G|-5x-5x-5--5x-5x-5--5x-5x-5--5x-5x-5-------------------------------------------|
D|-5x-5x-5--5x-5x-5--5x-5x-5--5x-5x-5--3x-3x-3--3x-3x-3--3x-3x-3--3x-3x-3-------|
A|-3x-3x-3--3x-3x-3--3x-3x-3--3x-3x-3--3x-3x-3--3x-3x-3--3x-3x-3--3x-3x-3-------|
E|---------------------------------------1x-1x-1--1x-1x-1--1x-1x-1--1x-1x-1-----|

"the doctor said..."
e|------------------------------------------------------------------|
B|------------------------------------------------------------------|
G|---------------5----------------------5---------------------------|
D|---------------5-----------3----------5---------3-----------------|
A|---------------3-----------3----------3---------3-----------------|
E|---------------------------1--------------------1-----------------|

"to pass the time bob shaved his head... He got a new identity..."
e|--------------------------------------------------------------------|
B|--------------------------------------------------------------------|
G|-5------------------------------------------------------------------|
D|-5-------------------------------3----------------------------------|
A|-3-------------------------------3----------------------------------|
E|---------------------------------1----------------------------------|

"...when the came out of town, I would get around..."
e|------------------------------------------------------------------|
B|------------------------------------------------------------------|
G|-5----------------------------------------------------------------|
D|-5------5------7------3-------------------------------------------|
A|-3------5------7------3-------------------------------------------|
E|--------3------5------1-------------------------------------------|

Solo:

e|----------------8-----8-----8-----------------------------------|
B|----------------8-----8-----8-----------------------------------|
G|-----------5-7b---7b----7b---7hb-7hb-7-5---5-------5------------|
D|--5-5-5-7---------------------------------7---7-5-7---7-5-7-----|
A|----------------------------------------------------------------|
E|----------------------------------------------------------------|

e|------------------------8-8-8-10-10-10-8-8-7-7-7-8-8-8-7-7-----|
B|------------------------8-8-8--8--8--8-8-8-8-8-8-8-8-8-8-8-----|
G|-5s4-4s5-7-7-9-9-10-10-----------------------------------------|
D|---------------------------------------------------------------|
A|---------------------------------------------------------------|
E|---------------------------------------------------------------|

e|-8-8-8-10-10-10-8-8-7-7-7-8-8-8-7-7-8-8-8p7-7-7-7p5-------------------------|
B|-8-8-8--8--8--8-8-8-8-8-8-8-8-8-8-8------------------10-10-10p8-8-8-8p6-----|
G|----------------------------------------------------------------------------|
D|----------------------------------------------------------------------------|
A|----------------------------------------------------------------------------|
E|----------------------------------------------------------------------------|

e|--------------------5-5-5-7-7-7-7-8-------------------------------|
B|-6-6p5-6-6-6-8-8-8------------------------------------------------|
G|------------------------------------------------------------------|
D|------------------------------------------------------------------|
A|------------------------------------------------------------------|
E|------------------------------------------------------------------|

"A couple of lines..."
e|-------------------------------------------------------------------|
B|-------------------------------------------------------------------|
G|-5-------------------5---------------------------------------------|
D|-5---------3---------5---------7----------3--------5---------------|
A|-3---------3---------3---------7----------3--------5---------------|
E|-----------1-------------------5----------1--------3---------------|

"Quit your drinking nows the time..."
e|----------------------------------------------------------------|
B|----------------------------------------------------------------|
G|-5--------------------------------------------------------------|
D|-5----------5-----------3---------5-----------------------------|
A|-3----------5-----------3---------5-----------------------------|
E|------------3-----------1---------3-----------------------------|

"Will he ever walk the line..."
e|-------------------------------------------------------------------|
B|-------------------------------------------------------------------|
G|-5--------3--------------------------------------------------------|
D|-5--------3---------3----------5-----------------------------------|
A|-3--------1---------3----------5-----------------------------------|
E|--------------------1----------3-----------------------------------|

Outro:
"Oh will he ever walk the line..."
e|-------------------------------------------------------------------|
B|-------------------------------------------------------------------|
G|-5-----------------------------------------------------------------|
D|-5--------5---------7----------3-----------------------------------|
A|-3--------5---------7----------3-----------------------------------|
E|----------3---------5----------1-----------------------------------|

End Chord:
e|-------------------------------------------------------------------|
B|-------------------------------------------------------------------|
G|-5-----------------------------------------------------------------|
D|-5-----------------------------------------------------------------|
A|-3-----------------------------------------------------------------|
E|-------------------------------------------------------------------|
Related for Bob tab