Song name
# A B C D E F G H I J K L M N O P Q R S T U V W X Y Z

Rancid - Rattlesnake tab

-------------------------------------------------------------------------------
			     SONG NAME - Band Name
-------------------------------------------------------------------------------
Tabbed by:Sherman Leung
Email: yayanime@hotmail.com

Tuning:Standard
Intro- Tremelo pick the single notes
e|-------------------------------------|
B|----5431210---------5431210 ---------|
G|------------5x--------------2~-------|
D|------------5x--------------2~-6~----|
A|------------3x--------------0~-6~----|
E|-------------------------------4~----|
                   x3
Verse
e|-------------------------------------------------------------------------------|
B|-------------------------------------------------------------------------------|
G|-------------------------------------------------------------------------------|
D|--5x---------------------------------------------------------------------------|
A|--5x---------------------------------------------------------------------------|
E|--3x---------------------------------------------------------------------------|
            bass

Chorus-You're a rattlesnake!
e|--------------------------|
B|--------------------------|
G|---10-----15-13-----------|
D|---10-----15-13-----------|
A|---8------13-11-----------|
E|--------------------------|

Break  (Not sure)
e|-----------------------------|
B|-----------------------------|
G|--15-13-10----10--12h13-10~--|
D|-----------13----------------|
A|-----------------------------|
E|-----------------------------|

| /  slide up
| \  slide down
| h  hammer-on
| p  pull-off
| ~  vibrato
| +  harmonic
| x  Mute note
===============================================================================
Tap to rate this tab
# A B C D E F G H I J K L M N O P Q R S T U V W X Y Z