Song name
# A B C D E F G H I J K L M N O P Q R S T U V W X Y Z

Rancid - Hold On tab

-------------------------------------------------------------------------------
			     Hold On solo - Rancid                        
-------------------------------------------------------------------------------
Tabbed by: The Sick Child
Email:Vanorden63@hotmail.com


Tuning: standard EADGBe

ehh this is my first tab, and I know there are bits that aren't right, but go easy on me.

corrections are welcome.


e|---2h4p2--5-5-5-4-4-4-2-2-2-0-0-0------------------------------------------|
B|----------------------------------4-5p4-2~-2-2-2---------------------------|
G|-------------------------------------------------4-2-1---------2-----------|
D|-------------------------------------------------------4-2/4-4---2-2h4-----|
A|-----------------------------------------------------------------------2-2-|
E|---------------------------------------------------------------------------|

e|---------------------------------------------------------------------------|
B|---------------------------------------------------------------------------|
G|---------------------------4-----------------------------------------------|
D|-------2h4---------2h4-4/6---4-2-4-2-4/6-4\2~------------------------------|
A|---2h4-----2-2-2h4---------------------------------------------------------|
E|---------------------------------------------------------------------------|

www.rancidrancid.com


| /  slide up
| \  slide down
| h  hammer-on
| p  pull-off
| ~  vibrato
| +  harmonic
| x  Mute note
===============================================================================
Tap to rate this tab
# A B C D E F G H I J K L M N O P Q R S T U V W X Y Z