Song name
# A B C D E F G H I J K L M N O P Q R S T U V W X Y Z

Rancid - Journey To The End Of The East Bay tab

  ello dis is a tab 4 1 of my favourit songs VIVA LA RANCID lolz

anyway on with the tab

         standard tunin for both guitars

                        intro                                           (x2)
E ---------------------------------------------------------------------------|
B ---------------------------------------------------------------------------|
G 5---------12---------14----------10-----------5---------12----------10-----|
D 5---------12---------14----------10-----------5---------12----------10-----|
A 3 (8x)----10 (8x)----12 (8x)-----8 (8x)------ 3(8x)-----10 (8x)-----8 16---|x)
E ---------------------------------------------------------------------------|


                        verse
E --------------------------------------------------------------------------|
B --------------------------------------------------------------------------|
G -x-x-5-x-x-x-5------------------------------------------------------------|
D -x-x-5-x-x-x-5--x-x-5-x-x-x-5--x-x-7-x-x-x-7--x-x-3-x-x-x-3---------------|
A -x-x-3-x-x-x-3--x-x-5-x-x-x-5--x-x-7-x-x-x-7--x-x-3-x-x-x-3---------------|
E ----------------x-x-3-x-x-x-3--x-x-5-x-x-x-5--x-x-1-x-x-x-1---------------|

                             chorus
E|------------------------------------------------------------------------|
B|------------------------------------------------------------------------|
G|-5----------------------------------------------------------------------|
D|-5--------5---------7--------3------------------------------------------|
A|-3-(4x)---5---------7--------3------------------------------------------|
E|----------3-(4x)----5-(4x)---1-(4x)-------------------------------------|

             behind that you can hear...

E|-88-8-888-88-8-888-88-8-888 etc-------------------------------------|
B|-88-8-888-88-8-888-88-8-888-----------------------------------------|
G|--------------------------------------------------------------------|
D|--------------------------------------------------------------------|
A|--------------------------------------------------------------------|
E|--------------------------------------------------------------------|

               outro                                         (x2)
E|--------------------------------------------------------------------|
B|--------------------------------------------------------------------|
G|-5------------------------------------------------------------------|
D|-5-------5---------7--------3---------------------------------------|
A|-3-(8x)--5---------7--------3---------------------------------------|
E|---------3-(8x)----5-(8x)---1-(8x)----------------------------------|

behind that you can hear...

E|-88-8-888-88-8-888-88-8-888 etc-------------------------------------|
B|-88-8-888-88-8-888-88-8-888-----------------------------------------|
G|--------------------------------------------------------------------|
D|--------------------------------------------------------------------|
A|--------------------------------------------------------------------|
E|--------------------------------------------------------------------|

                      3rd time play...
E|--------------------------------------------------8-8-8-8---------|
B|-------------------------------------------------8-8-8--8---------|
G|-5--------------------------------------------5-------------------|
D|-5--------5--------7--------3--------3--------5-------------------|
A|-3-(8x)---5--------7--------3--------3--------3-------------------|
E|----------3-(8x)---5-(8x)---1--------1----------------------------|

   rate plz . p.s kl song
Tap to rate this tab
# A B C D E F G H I J K L M N O P Q R S T U V W X Y Z