Song name
# A B C D E F G H I J K L M N O P Q R S T U V W X Y Z

Rancid - Maxwell Murder tab

Intro X2

E---|-------|
B---|-------|
G-7-|-5-----|
D-7-|-5--5--|
A-5-|-3--5--|
E---|----3--|


Verse 

E----------|-----------|
B----------|-----------|
G-77777777-|-5555------|
D-77777777-|-5555-5555-|
A-55555555-|-3333-5555-|
E----------|------3333-|

E----------|-----------|
B----------|-----------|
G-77777777-|-5555------|
D-77777777-|-5555-5555-|
A-55555555-|-3333-5555-|
E----------|------3333-|


Chorus 

E------------------|-----------|
B------------------|-----------|
G-1010101010101010-|------7777-|
D-1010101010101010-|-7777-7777-|
A--8-8-8-8-8-8-8-8-|-7777-5555-|
E------------------|-5555------|

E------------------|-----------|
B------------------|-----------|
G-1010101010101010-|------7777-|
D-1010101010101010-|-7777-7777-|
A--8-8-8-8-8-8-8-8-|-7777-5555-|
E------------------|-5555------|

E------------------|-----------|
B------------------|-----------|
G-1010101010101010-|------7777-|
D-1010101010101010-|-7777-7777-|
A--8-8-8-8-8-8-8-8-|-7777-5555-|
E------------------|-5555------|

E-----------|-----------|
B-----------|-----------|
G-7777------|-----------|
D-7777-7777-|-3333-7777-|
A-5555-7777-|-3333-7777-|
E------5555-|-1111-5555-|


Intro (repeated) X2
E---|-------|
B---|-------|
G-7-|-5-----|
D-7-|-5--5--|
A-5-|-3--5--|
E---|----3--|


Verse

E----------|-----------|
B----------|-----------|
G-77777777-|-5555------|
D-77777777-|-5555-5555-|
A-55555555-|-3333-5555-|
E----------|------3333-|

E----------|-----------|
B----------|-----------|
G-77777777-|-5555------|
D-77777777-|-5555-5555-|
A-55555555-|-3333-5555-|
E----------|------3333-|


Chorus

E------------------|-----------|
B------------------|-----------|
G-1010101010101010-|------7777-|
D-1010101010101010-|-7777-7777-|
A--8-8-8-8-8-8-8-8-|-7777-5555-|
E------------------|-5555------|

E------------------|-----------|
B------------------|-----------|
G-1010101010101010-|------7777-|
D-1010101010101010-|-7777-7777-|
A--8-8-8-8-8-8-8-8-|-7777-5555-|
E------------------|-5555------|

E------------------|-----------|
B------------------|-----------|
G-1010101010101010-|------7777-|
D-1010101010101010-|-7777-7777-|
A--8-8-8-8-8-8-8-8-|-7777-5555-|
E------------------|-5555------|

E-----------|-----------|
B-----------|-----------|
G-7777------|-----------|
D-7777-7777-|-3333-7777-|
A-5555-7777-|-3333-7777-|
E------5555-|-1111-5555-|



Rest for 24 beats for the bass solo



Chorus


E------------------|-----------|
B------------------|-----------|
G-1010101010101010-|------7777-|
D-1010101010101010-|-7777-7777-|
A--8-8-8-8-8-8-8-8-|-7777-5555-|
E------------------|-5555------|

E------------------|-----------|
B------------------|-----------|
G-1010101010101010-|------7777-|
D-1010101010101010-|-7777-7777-|
A--8-8-8-8-8-8-8-8-|-7777-5555-|
E------------------|-5555------|

E------------------|-----------|
B------------------|-----------|
G-1010101010101010-|------7777-|
D-1010101010101010-|-7777-7777-|
A--8-8-8-8-8-8-8-8-|-7777-5555-|
E------------------|-5555------|

E-----------|-----------|
B-----------|-----------|
G-7777------|-----------|
D-7777-7777-|-3333-7777-|
A-5555-7777-|-3333-7777-|
E------5555-|-1111-5555-|

E---|
B---|
G-7-|
D-7-|
A-5-|
E---|
Tap to rate this tab
# A B C D E F G H I J K L M N O P Q R S T U V W X Y Z