Song name
# A B C D E F G H I J K L M N O P Q R S T U V W X Y Z

Rancid - Old Friend tab

pre-chorus
e|-----------------------                           
B|-----------------------                           
G|-6-6-6-6-6-6-6-6-6-6-6-                           
D|-6-6-6-6-6-6-6-6-6-6-6-                           
A|-4-4-4-4-4-4-4-4-4-4-4-                           
E|-----------------------                           
                                                    
chorus                                              
e|----------------------------------                
B|----------------------------------
G|---------------------------8-8-8-8
D|-8-6-8-6-8-6-8-6--6-4-6-4--8-8-8-8 
A|-8-6-8-6-8-6-8-6--6-4-6-4--6-6-6-6
E|-6-6-6-6-6-6-6-6--4-4-4-4---------

chorus end - 0n 4th time
e|--------------------|
B|--------------------|
G|----------------8\--|
D|-6-6-6-6-6-6-6--8\--|
A|-6-6-6-6-6-6-6--6\--|
E|-4-4-4-4-4-4-4------|

bridge
e|---------------------------------|
B|---------------------------------|
G|-8-8-8-8-8-8-8\6-6-6-6-6-6-6-6/8-|
D|-8-8-8-8-8-8-8\6-6-6-6-6-6-6-6/8-|
A|-6-6-6-6-6-6-6\4-4-4-4-4-4-4-4/6-|
E|---------------------------------|

pre-chorus 2
e|--------------------------------------------|
B|--------------------------------------------|
G|-6-6-6-6-6-6-6-6-6-6-6-6-6-6-6-6-6-6-6------|
D|-6-6-6-6-6-6-6-6-6-6-6-6-6-6-6-6-6-6-6--6---|
A|-4-4-4-4-4-4-4-4-4-4-4-4-4-4-4-4-4-4-4--6---|
E|----------------------------------------4---|

outro
e|-----------------11----|
B|-8-9-9-5\--8-911-11----|
G|-8-8-8-5\--8-8-8-------|
D|-----------------------|
A|-----------------------|
E|-----------------------|
Tap to rate this tab
# A B C D E F G H I J K L M N O P Q R S T U V W X Y Z