Song name
# A B C D E F G H I J K L M N O P Q R S T U V W X Y Z

Rancid - Olympia Wa tab

RANCID
any corrections are welcomed
CHOPSTTIX
Olympia, WA
RATE!


Intro x2
         C    D    G    x2                           (last note of intro)    
e -------0-0--2-2--3-3-----|------0-0---0-0---0-0-0-----|--3------|
B --0-1--1-1--3-3--0-0--1--|--0-1-----3-----3-------3---|--0------|
G -------0-0--2-2--0-0-----|----------------------------|--0------|
D -------2-2--0-0--0-0-----|----------------------------|--0------|
A -------3-3--0-0--2-2-----|----------------------------|--2------|
E -------0-0--0-0--3-3-----|----------------------------|--3------|



Verse 1

e --------------------------------------------|
B --------------------------------------------|
G ----------------555555555555----------------|
D --555555555555--555555555555--555555555555--|
A --555555555555--333333333333--555555555555--|
E --333333333333----------------333333333333--|
    ............  ............  ............


e --------------------------------------------|
B --------------------------------------------|
G --777777777777----------------555555555555--|
D --777777777777--555555555555--555555555555--|
A --555555555555--555555555555--333333333333--|
E ----------------333333333333----------------|
    ............  ............  ............

e --------------------------------------|
B --------------------------------------|
G ----------777777------------77777777--|
D --555555--777777--55555555--77777777--|
A --555555--555555--55555555--55555555--|
E --333333----------33333333------------|
    ......  ......  ........  


Chorus 1 

e ----------------------------------------------|
B ----------------------------------------------|
G --5-5555555--7-7777777-------------5-5555555--|
D --5-5555555--7-7777777--5-5555555--5-5555555--|x3
A --3-3333333--5-5555555--5-5555555--3-3333333--|
E ------------------------3-3333333-------------|



Bridge 1

e ------------------------|
B ------------------------|
G --5555--------77777777--|
D --5555--5555--77777777--|
A --3333--5555--55555555--|
E --------3333------------|



Verse 2

e --------------------------------------------|
B --------------------------------------------|
G ----------------555555555555----------------|
D --555555555555--555555555555--555555555555--|
A --555555555555--333333333333--555555555555--|
E --333333333333----------------333333333333--|
    ............  ............  ............


e --------------------------------------------|
B --------------------------------------------|
G --777777777777----------------555555555555--|
D --777777777777--555555555555--555555555555--|
A --555555555555--555555555555--333333333333--|
E ----------------333333333333----------------|
    ............  ............  ............

e --------------------------------------|
B --------------------------------------|
G ----------777777------------77777777--|
D --555555--777777--55555555--77777777--|
A --555555--555555--55555555--55555555--|
E --333333----------33333333------------|
    ......  ......  ........  


Chorus 2 

e ----------------------------------------------|
B ----------------------------------------------|
G --5-5555555--7-7777777-------------5-5555555--|
D --5-5555555--7-7777777--5-5555555--5-5555555--|x3
A --3-3333333--5-5555555--5-5555555--3-3333333--|
E ------------------------3-3333333-------------|



Bridge 2

e ------------------------|
B ------------------------|
G --5555--------77777777--|
D --5555--5555--77777777--|
A --3333--5555--55555555--|
E --------3333------------|



Solo

e--15-15--15-15--15-15--18-18-18-18--15-15----------------------------|
B--15-15--15-15--15-15--17-17-17-17--15-15----------------------------|
G-------------------------------------------17-15-17-17b19r-17-15-----|
D-----------------------------------------------------------------17--|
A---------------------------------------------------------------------|
E---------------------------------------------------------------------|

e-----------15-15-15--15-15--15-15--18-18-18-18--15-15-------------------|
B-----------15-15-15--15-15--15-15--17-17-17-17--15-15-------------------|
G-----15-17---------------------------------------------17-15-17-17b19r--|
D--17--------------------------------------------------------------------|
A------------------------------------------------------------------------|
E------------------------------------------------------------------------|

e-----------------------------------------------------------------------|
B-----------------------------------------------------------------------|
G--17-15--------15-17-17b19-b19r-17-15-----------------15-17-17b19------|
D--------17--17------------------------17--17-17-17-17------------------|
A-----------------------------------------------------------------------|
E-----------------------------------------------------------------------|

e---------------------------------------------------------------|
B-----------------------15-15-15-15-15-15-15-15-15-15-15-15-----|
G--b19--b19-b19r-15-----------------------------------------17--|
D-------------------17------------------------------------------|
A---------------------------------------------------------------|
E---------------------------------------------------------------|




Verse 3

e --------------------------------------------|
B --------------------------------------------|
G ----------------555555555555----------------|
D --555555555555--555555555555--555555555555--|
A --555555555555--333333333333--555555555555--|
E --333333333333----------------333333333333--|
    ............  ............  ............


e --------------------------------------------|
B --------------------------------------------|
G --777777777777----------------555555555555--|
D --777777777777--555555555555--555555555555--|
A --555555555555--555555555555--333333333333--|
E ----------------333333333333----------------|
    ............  ............  ............

e --------------------------------------|
B --------------------------------------|
G ----------777777------------77777777--|
D --555555--777777--55555555--77777777--|
A --555555--555555--55555555--55555555--|
E --333333----------33333333------------|
    ......  ......  ........  


Chorus 3 

e ----------------------------------------------|
B ----------------------------------------------|
G --5-5555555--7-7777777-------------5-5555555--|
D --5-5555555--7-7777777--5-5555555--5-5555555--|x3
A --3-3333333--5-5555555--5-5555555--3-3333333--|
E ------------------------3-3333333-------------|



Bridge 3

e ------------------------|
B ------------------------|
G --5555--------77777777--|
D --5555--5555--77777777--|
A --3333--5555--55555555--|
E --------3333------------|



Outro x2
         C    D    G    x2                           (last note of outro)    
e -------0-0--2-2--3-3-----|------0-0---0-0---0-0-0-----|--3------|
B --0-1--1-1--3-3--0-0--1--|--0-1-----3-----3-------3---|--0------|
G -------0-0--2-2--0-0-----|----------------------------|--0------|
D -------2-2--0-0--0-0-----|----------------------------|--0------|
A -------3-3--0-0--2-2-----|----------------------------|--2------|
E -------0-0--0-0--3-3-----|----------------------------|--3------|
Tap to rate this tab
 
# A B C D E F G H I J K L M N O P Q R S T U V W X Y Z