Song name
# A B C D E F G H I J K L M N O P Q R S T U V W X Y Z

Rancid - Roots Radicals tab

----------------------------------------------------------------------------
			     Roots Radicals - Rancid
----------------------------------------------------------------------------
Tabbed by:Jefferiah
Email:Eternitynight@hotmail.com

I put this on here because I couldnt find the outro chorus/solo part
This is NOT my own work, I am not taking credit in anyway, I put it up so now everyone 
play that nifty ending part.

Tuning:Standard EADGBE

First Solo Main:

e|-------------------------|--------------------8-8--|-------8-8-------8-8-|
B|-------------------------|--------------------8-8--|-------8-8-------8-8-|
G|-------------------------|-------------------------|-10b-------10b-------|
D|--3----3--3--3--3--3--3--|--3--3--3--3--3--3-------|---------------------|
A|--3----3--3--3--3--3--3--|--3--3--3--3--3--3-------|---------------------|
E|--1----1--1--1--1--1--1--|--1--1--1--1--1--1-------|---------------------|

e|-----8--|--11--11--11--11--11--11--11\-----|-------------------------|---|
B|-----8--|--10--10--10--10--10--11--11------|-------------------------|---|
G|10------|----------------------------------|-------------------------|---|
D|--------|----------------------------------|--3----3--3--3--3--3--3--|-3-|
A|--------|----------------------------------|--3----3--3--3--3--3--3--|-3-|
E|--------|----------------------------------|--1----1--1--1--1--1--1--|-1-|

e|-----------------------|--------------------------------------------------|
B|-----------------------|--------------------------------------------------|
G|----------------8--10--|-10b--(10)--10--8------8---10---10b----8----------|
D|-3--3--3--3/10---------|-------------------10---------------------10~--\3-|
A|-3--3--3--3------------|-----------------------------------------------\3-|
E|-1--1--1--1------------|-----------------------------------------------\1-|

e|-------------------------|-------------------------------------------------|
B|-------------------------|-5--5--5--5--5p3--3/15--15--15--15--15--15--15\--|
G|-------------------------|-0--0--0--0--0----0/12--12--12--12--12--12--12\--|
D|-3--3--3--3--3--3--3--3--|-------------------------------------------------|
A|-3--3--3--3--3--3--3--3--|-------------------------------------------------|
E|-1--1--1--1--1--1--1--1--|-------------------------------------------------|

Outro-Chorus:

e|-------8--8---------8--8--8--8--|-------8--8---------8--8--8--8--|--------|
B|-------8--8---------8--8--8--8--|-------8--8---------8--8--8--8--|--------|
G|-10b----------10b---------------|-10b----------10b---------------|-10b----|
D|--------------------------------|--------------------------------|--------|
A|--------------------------------|--------------------------------|--------|
E|--------------------------------|--------------------------------|--------|

e|--8--8-------8--8-------8--|--11--8--8-------8--8-------8-8-----|-------8-|
B|--8--8-------8--8-------8--|--10--8--8-------8--8-------8-8-----|-------8-|
G|--------10b--------10b-----|------------10b--------10b----------|--10b----|
D|---------------------------|------------------------------------|---------|
A|---------------------------|------------------------------------|---------|
E|---------------------------|------------------------------------|---------|

e|--8-------8--8--8--8------|--11--8-------8--8--8--8--8--|--11--8----------|
B|--8-------8--8--8--8------|--10--8-------8--8--8--8--8--|--10--8--11--8---|
G|-----10b------------------|-----------------------------|-------------8---|
D|--------------------------|-----------------------------|-----------------|
A|--------------------------|-----------------------------|-----------------|
E|--------------------------|-----------------------------|-----------------|

e|-----------------|--------------------------------|-------------------|---|
B|-----------------|--------------------------------|-------------------|---|
G|--11--10--8--10--|--10b--(10)--8------8----10--8--|-------------------|---|
D|-----------------|----------------10--------------|--10(~)------------|10-|
A|-----------------|--------------------------------|-------------------|10-|
E|-----------------|--------------------------------|-------------------|-8-|

| b  bend full
| /  slide up
| \  slide down
| h  hammer-on
| p  pull-off
| ~  vibrato
| +  harmonic
| x  Mute note
============================================================================
Tap to rate this tab
# A B C D E F G H I J K L M N O P Q R S T U V W X Y Z