Song name
# A B C D E F G H I J K L M N O P Q R S T U V W X Y Z

Rancid - Salvation tab

Tab by David Ross
Rancid - Salvation


E   ----------------------------|
B   ----------------------------|
G   -----7-9--------------------| X2 Hold each chord
D   ---7-7-9--------------------|
A   ---7-5-7--------------------|
E   ---5------------------------|

E   ----------------------------|
B   ----------------------------|
G   -----7-9-7------------------| X4
D   ---7-7-9-7------------------|
A   ---7-5-7-5------------------|
E   ---5------------------------|

E   ----------------------------|
B   ----------------------------|
G   -----7-9--------------------| X2 Hold each chord
D   ---7-7-9--------------------|
A   ---7-5-7--------------------|
E   ---5------------------------|

E   ----------------------------|
B   ----------------------------|
G   -----7-9-7------------------| X4
D   ---7-7-9-7------------------|
A   ---7-5-7-5------------------|
E   ---5------------------------|

E   ----------------------------|
B   ----------------------------|
G   -----7-9--------------------| X2 Hold each chord
D   ---7-7-9--------------------|
A   ---7-5-7--------------------|
E   ---5------------------------|

(Solo)

E   ---------------------------------------------------------------------|
B   ---------------------------------------------------------------------|
G   ---7-----7-----7-10-10--10-9-7---7-7-10-9-7---7-----7---7-10-9-7-----|
D   -----7-9---7-9-----------------9------------9---7-9---9--------------|
A   ---------------------------------------------------------------------|
E   ---------------------------------------------------------------------|

E   ----------------------------|
B   ----------------------------|
G   -----7-9--------------------| X2 Hold each chord
D   ---7-7-9--------------------|
A   ---7-5-7--------------------|
E   ---5------------------------|

E   ----------------------------|
B   ----------------------------|
G   -----7-9-7------------------| X4
D   ---7-7-9-7------------------|
A   ---7-5-7-5------------------|
E   ---5------------------------|

E   ----------------------------|
B   ----------------------------|
G   -----7-9--------------------| X2 Hold each chord
D   ---7-7-9--------------------|
A   ---7-5-7--------------------|
E   ---5------------------------|

(Solo)

E   ---------------------------------------------------------------------|
B   ---------------------------------------------------------------------|
G   ---7-----7-----7-10-10--10-9-7---7-7-10-9-7---7-----7---7-10-9-7-----|
D   -----7-9---7-9-----------------9------------9---7-9---9--------------|
A   ---------------------------------------------------------------------|
E   ---------------------------------------------------------------------|

E   ----------------------------|
B   ----------------------------|
G   -----7-9--------------------| X4 Hold each chord
D   ---7-7-9--------------------|
A   ---7-5-7--------------------|
E   ---5------------------------|
Tap to rate this tab
# A B C D E F G H I J K L M N O P Q R S T U V W X Y Z