Song name
# A B C D E F G H I J K L M N O P Q R S T U V W X Y Z

Rancid - Rejected tab

Song: Rejected
Band: Rancid
Albm: Rancid '93

Intro:
|------------------------------------|
|------------------------------------|
|---9--------------------------------|
|---9--------------9--9--8--7--7--7--|
|---7--------------9--9--8--7--7--7--|
|------------------7--7--6--5--5--5--|

|------------------------------------|
|------------------------------------|
|---9-9-9-9-9-9-9--------------------|
|---9-9-9-9-9-9-9--9-9-9-8--7-7-7-7--|
|---7-7-7-7-7-7-7--9-9-9-8--7-7-7-7--|
|------------------7-7-7-6--5-5-5-5--|

Verse:
|------------------------------------------------------|
|------------------------------------------------------|
|---------------5-5-5-5-5-5----------------------------|
|--2-2-2-2-2-2--5-5-5-5-5-5--5-5-5-5-5-5--7-7-7-7-7-7--|
|--2-2-2-2-2-2--3-3-3-3-3-3--5-5-5-5-5-5--7-7-7-7-7-7--|
|--0-0-0-0-0-0---------------3-3-3-3-3-3--5-5-5-5-5-5--|

Chorus:
|---------------...x4...---------------|---------------|
|--------------------------------------|---------------|
|--9-9-9-9--5-5-5-5--------------------|---------------|
|--9-9-9-9--5-5-5-5--5-5-5-5--7-7-7-7--|--9------------|
|--7-7-7-7--3-3-3-3--5-5-5-5--7-7-7-7--|--9------------|
|--------------------3-3-3-3--5-5-5-5--|--7---ring out-|

Breakdown:
|----------..x2..---------|
|-------------------------|
|-------------------------|
|--2---------9-----7------|
|--2---------9-----7------|
|--0---------7-----5------|

|--------------..x4..----------------|---------------|
|------------------------------------|---------------|
|---9-9-9-9-9-9-9--------------------|---------------|
|---9-9-9-9-9-9-9--9-9-9-8--7-7-7-7--|--9------------|
|---7-7-7-7-7-7-7--9-9-9-8--7-7-7-7--|--9------------|
|------------------7-7-7-6--5-5-5-5--|--7---ring out-|

I dunno what the solo at the start is,
but it doesnt sound like anything too difficult.
Just lots of bend on the top two strings.
Easy.
Tabbed by owen_b123@hotmail.com
Tap to rate this tab
 
# A B C D E F G H I J K L M N O P Q R S T U V W X Y Z