Song name
# A B C D E F G H I J K L M N O P Q R S T U V W X Y Z

Rancid - You Want It You Got It tab

standard tuning

Intro/chorus
------------------------------------------------------|
------------------------------------------------------|
77777777-------------------77777777-------------------|
77777777-77777777-55555555-77777777-77777777-55555555-|
55555555-77777777-55555555-55555555-77777777-55555555-|
---------55555555-33333333----------55555555-33333333-|

Verse
same as chorus, first note open then the rest is palm muted
------------------------------------------------------|
------------------------------------------------------|
77777777-------------------77777777-------------------|
77777777-77777777-55555555-77777777-77777777-55555555-|
55555555-77777777-55555555-55555555-77777777-55555555-|
---------55555555-33333333----------55555555-33333333-|

Bridge
------------------------------------------------------|
------------------------------------------------------|
999999--------999999--------999999--------------------|
999999-999999-999999-999999-999999-999999-777777-55-3-|
777777-999999-777777-999999-777777-999999-777777-55-3-|
-------777777--------777777--------777777-555555-33-1-|

play this part clean
-----------------------------------|
-----------------------------------|
7-----------------7----------------|
7----7----5-------7----7----5------|
5----7----5-------5----7----5------|
-----5----3------------5----3------|

then back to the chorus.

end on
---
---
-7-
-7-
-5-
---

not to difficult, except the solo in the background in the last 15-20 seconds. thanks lars.
see you from the pit
Tap to rate this tab
# A B C D E F G H I J K L M N O P Q R S T U V W X Y Z