Song name
# A B C D E F G H I J K L M N O P Q R S T U V W X Y Z

Rancid - Dead Bodies tab

                    RANCID - DEAD BODIES

Verse
e|--------------|
b|--------------| x8
g|-7-7----------|
d|-7-7-7-7-8-5-5|
a|-5-5-7-7-8-5-5|
E|-----5-5-6-3-3|
(My skin is crawling and...)

Chorus (Play each note eight times)
e|-----------------------------------------------------------------|
b|-----------------------------------------------------------------|
g|-7-7-7-7-7-7-7-7---------------------------------7-7-7-7-7-7-7-7-| x2
d|-7-7-7-7-7-7-7-7-7-7-7-7-7-7-7-7-8-8-8-8-5-5-5-5-7-7-7-7-7-7-7-7-|
a|-5-5-5-5-5-5-5-5-7-7-7-7-7-7-7-7-8-8-8-8-5-5-5-5-5-5-5-5-5-5-5-5-|
E|-----------------5-5-5-5-5-5-5-5-6-6-6-6-3-3-3-3-----------------|
(Dead bodies everywhere...)

Breakdown 
e|--------------------------------------|
b|--------------------------------------|
g|-5----5----5----5----5----5----5----5-|
d|--------------------------------------|
a|-3----3----3----3----3----3----3----3-|
E|--------------------------------------|
(And there's nothing you can do...)

Outro
e|-------------------------------|
b|-------------------------------|
g|-----------------7-7-7-7-7-7-7-|
d|-8-8-8-8-5-5-5-5-7-7-7-7-7-7-7-| Until the end.
a|-8-8-8-8-5-5-5-5-5-5-5-5-5-5-5-|
E|-6-6-6-6-3-3-3-3---------------|
                        Pm . . .

That's pretty much it. It goes like this.
Verse
Chorus
Verse
Chorus
Breakdown
Verse
Outro
Tap to rate this tab
 
# A B C D E F G H I J K L M N O P Q R S T U V W X Y Z