Song name
# A B C D E F G H I J K L M N O P Q R S T U V W X Y Z

Rancid - Civilian Ways tab

The intro is played with a Mandolin so obviously
tabbing it for a guitar is a little weird.
Not all the notes are 100% but hey, its a guitar trying to mimick a Mandolin which is 
a little different.
Just putting this up there as a starting point for the rest of you!!!


e--------------------------------------------------------------9-10-12----|
B------10----12---10---14---12------10---------10--------10-12------------|
G-9-11--------------------------11--------9-11----------------------------|
D-------------------------------------------------------------------------|
A-------------------------------------------------------------------------|
E-------------------------------------------------------------------------|

e-17-16-14-12-10-9---------------------------10---------10---12-10----------|
B------------------12-10---------10----12-12------12-12------------14-12-10-|
G---------------------------9-11--------------------------------------------|
D---------------------------------------------------------------------------|
A---------------------------------------------------------------------------|
E---------------------------------------------------------------------------|
Tap to rate this tab
# A B C D E F G H I J K L M N O P Q R S T U V W X Y Z