Song name
# A B C D E F G H I J K L M N O P Q R S T U V W X Y Z

Rancid - Leicaster Square tab

Alright, i noticed that there really wasn't a standard guitar tab for this, so I'm
just gonna put it out.
It's uber easy and my fav song on Life Won't Wait
So here it is:
Leicaster Square.

Intro/Chorus:

   C  G  F    F  E  C
e--------------------------------------------------------|
B--------------------------------------------------------|
G--5----------------5------------------------------------|
D--5--5--3----3--2--5------------------------------------|  x4
A--3--5--3----3--2--3------------------------------------|
E-----3--1----1--0---------------------------------------|


Verse:

    G
e--------------------------------------------------------|
B--------------------------------------------------------|
G--------------------------------------------------------|
D---5-////----------////---------------------------------| x4
A---5-////Killswitch////---------------------------------|
E---3-////----------////---------------------------------|


Chorus: x4

Verse: x4

That's basically it, I'm not 100% on the "Na, Na, Na" part.
But, I'm pretty sure it's just playing the chorus twice and just playing those barre 
long.
Thanks for checkin' my tab and wanting to play RANCID.
Comments or suggestions: Wildside4495@aol.com
Tap to rate this tab
# A B C D E F G H I J K L M N O P Q R S T U V W X Y Z