Rancid - Salvation tab

Band:Rancid
Song:Salvation
Album:Let's Go, Track 4
Standard Tuning (ebgdae)

intro:
"Cmon baby..."
E|----------------------------------|-----------------------------|
B|----------------------------------|-----------------------------|
G|--------7--7-7--7-7---9--9-9--9-9-|-----------------------------|
D|-7------7--7-7--7-7---9--9-9--9-9-|-----------------------------|
A|-7------5--5-5--5-5---7--7-7--7-7-|-----------------------------|
E|-5--X\----------------------------|-----------------------------|
                                   (x2)

Verse:
"Theres a neighborhood..."
E|-----------------------------|-----------------------------------|
B|-----------------------------|-----------------------------------|
G|------------7-------9------7-|-----------------------------------|
D|-----7------7-------9------7-|-----------------------------------|
A|-----7--5-5-5---7-7-7--5-5-5-|-----------------------------------|
E|-5-5-5-----------------------|-----------------------------------|
                              (x4)

Chorus:
"Cmon baby..."
E|----------------------------------|-----------------------------|
B|----------------------------------|-----------------------------|
G|--------7--7-7--7-7---9--9-9--9-9-|-----------------------------|
D|-7------7--7-7--7-7---9--9-9--9-9-|-----------------------------|
A|-7------5--5-5--5-5---7--7-7--7-7-|-----------------------------|
E|-5--X\----------------------------|-----------------------------|
                                   (x2)
Verse(x1)
Chorus(x1)
Breakdown:
Guitar 1:
E|------------------|-----------------------------------------------|
B|------------------|-----------------------------------------------|
G|------------------|-----------------------------------------------|
D|--2-2-2-2-2-2-2-2-|-----------------------------------------------|
A|--2-2-2-2-2-2-2-2-|-----------------------------------------------|
E|--0-0-0-0-0-0-0-0-|-----------------------------------------------|
P.M.---->P.M.-------------------------------------------------------|(x8)

Personally I like to free-form jam the lead part in and make it bluesy but heres a 
that sounds pretty okay. Feel free to mess around with it.
Guitar 2:
E|-------------|----------------------|--------------------------|---|
B|-------------|----------------------|--------------------------|---|
G|--9--------9-|-----7-9-9b---9b--7---|--9b-7---7---7---7-9b-7---|---|
D|------7-9----|-7-9----------------9-|-------9---9---9--------9-|---|
A|-------------|----------------------|--------------------------|---|
E|-------------|----------------------|--------------------------|---|

Chorus(x1)
Verse(x1)
Chorus(x1)
Breakdown(x1)
Chorus(x2)

Thats it! Really easy song listen to it to get the timing and bends just right on the 
and you've got it.
Questions? Comments? Suggestions? Email me @ Liberationarmy13@yahoo.com
Tap to rate this tab
 
# A B C D E F G H I J K L M N O P Q R S T U V W X Y Z