Song name
# A B C D E F G H I J K L M N O P Q R S T U V W X Y Z

Rancid - Disconnected tab

-------------------------------------------------------------------------------
			     DISCONNECTED - Rancid
-------------------------------------------------------------------------------
Tabbed by: Sean
Email: originalskankster@gmail.com

Tuning: Standard

[Intro/Verse] - Palm Muted (Guitar 1)

e|---------------------------------------------------------------------------|
B|---------------------------------------------------------------------------|
G|-------10---8--------------------------------------------------------------|
D|---8---10---8--8-----------------------------------------------------------|
A|---8---8----6--8-----------------------------------------------------------|
E|---6-----------6-----------------------------------------------------------|

(Guitar 2)

e|---------------------------------------------------------------------------|
B|---------------------------------------------------------------------------|
G|-----------8--------------------------------------------------------------|
D|---8---3---8--8-----------------------------------------------------------|
A|---8---3---6--8-----------------------------------------------------------|
E|---6---1------6-----------------------------------------------------------|

[Chorus] "Disconnected.." - Not palm muted (Guitar 1)

e|---------------------------------------------------------------------------|
B|---------------------------------------------------------------------------|
G|-------10---8--------------------------------------------------------------|
D|---8---10---8--8-----------------------------------------------------------|
A|---8---8----6--8-----------------------------------------------------------|
E|---6-----------6-----------------------------------------------------------|

(Guitar 2)

e|---------------------------------------------------------------------------|
B|---------------------------------------------------------------------------|
G|-----------8--------------------------------------------------------------|
D|---8---3---8--8-----------------------------------------------------------|
A|---8---3---6--8-----------------------------------------------------------|
E|---6---1------6-----------------------------------------------------------|

[Verse]

[Chorus]

Breakdown/Bridge

e|---------------------------------------------------------------------------|
B|---------------------------------------------------------------------------|
G|-----------10--------10----10----------------------------------------------|
D|----8------10------8-10--8-10----------------------------------------------|
A|----8------8-------8-8---8-8-----------------------------------------------|
E|----6--------------6-----6-------------------------------------------------|

"You think that it's over.." (Guitar 1)

e|---6-----8-----6---6--------------------------------------------------------|
B|---6-----10----8---6--------------------------------------------------------|
G|---7-----10----8---7--------------------------------------------------------|
D|---8-----10----8---8--------------------------------------------------------|
A|---8-----8-----6---8--------------------------------------------------------|
E|---6-----x-----x---6--------------------------------------------------------|

(Guitar 2) - Let chords ring

e|---------------------------------------------------------------------------|
B|---------------------------------------------------------------------------|
G|------------8--------------------------------------------------------------|
D|---8----3---8---8----------------------------------------------------------|
A|---8----3---6---8----------------------------------------------------------|
E|---6----1-------6----------------------------------------------------------|

That part transitions into the same guitar as the intro/verse

[Chorus]

Last chorus: (Guitar 1)

e|---------------------------------------------------------------------------|
B|---------------------------------------------------------------------------|
G|--------10-10--8-8---------------------------------------------------------|
D|---8-8--10-10--8-8--8-8----------------------------------------------------|
A|---8-8--8--8---6-6--8-8----------------------------------------------------|
E|---6-6--------------6-6----------------------------------------------------|

(Guitar 2) Repeat several times, goes with the feel of the song

e|--5/6-6-6-6----------------------------------------------------------------|
B|--5/6-6-6-6----------------------------------------------------------------|
G|---------------------------------------------------------------------------|
D|---------------------------------------------------------------------------|
A|---------------------------------------------------------------------------|
E|---------------------------------------------------------------------------|

************************************

| /   slide up
| \   slide down
| h   hammer-on
| p   pull-off
| ~   vibrato
| +   harmonic
| x   Mute note
| b   Bend
| pb  Pre-bend
| br  Bend release
| pbr Pre-bend release
| brb Bend release bend

************************************
Tap to rate this tab
 
# A B C D E F G H I J K L M N O P Q R S T U V W X Y Z