Rancid - I Aint Worried tab

-------------------------------------------------------------------------------
                 I AIN'T WORRIED - Rancid
-------------------------------------------------------------------------------
Tabbed by: Chris
Email: chris@bbzzdd.com

Tuning: Standard

This pattern repeats during the intro and verses 
Palm muted ska strumming, listen to the song for the rhythm and chord changes

     Am (4x)       Am (4x)       Em (4x)        Am (4x)        
e|---(5)-----------(5)------------x-------------(5)--------------------------|
B|----5-------------5------------(8)-------------5---------------------------|
G|----5-------------5-------------9--------------5---------------------------|
D|----7-------------7-------------9--------------7---------------------------|
A|----x-------------x-------------7--------------x---------------------------|
E|----x-------------x----------------------------x---------------------------|

Variations of this Munsters-sounding arpeggio play throughout the song 

                         (let ring)
e|-----------------------5---------------------------------------------------|
B|------1-----4--5--(5)-----------------1-----(1)--1-------------------------|
G|---2-----2-------------------------2-----2----------2----------------------|
D|---------------------------------------------------------------------------|
A|---------------------------------------------------------------------------|
E|---------------------------------------------------------------------------|

    "I aint worried   /   About a goddamn thing" 

     Dm       Am          Em              Am       
e|----x-------(5)----------x--------------(5)--------------------------------|
B|---(6)-------5----------(8)--------------5---------------------------------|
G|----7--------5-----------9---------------5---------------------------------|
D|----7--------7-----------9---------------7---------------------------------|
A|----5--------x-----------7---------------x---------------------------------|
E|-------------x---------------------------x---------------------------------|

    "I hear them talkin'  /  I ain't listening..." 

     Dm         Am          Em             Am       
e|----x---------(5)----------x-------------(5)-------------------------------|
B|---(6)---------5----------(8)-------------5--------------------------------|
G|----7----------5-----------9--------------5--------------------------------|
D|----7----------7-----------9--------------7--------------------------------|
A|----5----------x-----------7--------------x--------------------------------|
E|---------------x--------------------------x--------------------------------|


"Listening... ing...    ing...    ING!!!"

     E7       E7        E7        E7
e|----0--------0---------0---------0-----------------------------------------|
B|----0--------0---------0---------0-----------------------------------------|
G|----1--------1---------1---------1-----------------------------------------|
D|----0--------0---------0---------0-----------------------------------------|
A|----2--------2---------2---------2-----------------------------------------|
E|----0--------0---------0---------0-----------------------------------------|


 "How many times / did you    /  tell me    /   I was wrong..."

     Am (4x)       Am (4x)       Em (4x)        Am (4x)        
e|---(5)-----------(5)------------x-------------(5)--------------------------|
B|----5-------------5------------(8)-------------5---------------------------|
G|----5-------------5-------------9--------------5---------------------------|
D|----7-------------7-------------9--------------7---------------------------|
A|----x-------------x-------------7--------------x---------------------------|
E|----x-------------x----------------------------x---------------------------|


"I take chances that most won't take..."

     Am  (repeat 7x)       
e|---(0)---------------------------------------------------------------------|
B|---(1)---------------------------------------------------------------------|
G|----2----------------------------------------------------------------------|
D|----2----------------------------------------------------------------------|
A|----0----------------------------------------------------------------------|
E|---------------------------------------------------------------------------|

"Get it clear and make no mistake..."

     Em  (repeat 7x)
e|---(0)---------------------------------------------------------------------|
B|---(0)---------------------------------------------------------------------|
G|----0----------------------------------------------------------------------|
D|----2----------------------------------------------------------------------|
A|----2----------------------------------------------------------------------|
E|----0----------------------------------------------------------------------|

Outro, is same as the intro

     Am (4x)       Am (4x)       Em (4x)        Am (4x)        
e|---(5)-----------(5)------------x-------------(5)--------------------------|
B|----5-------------5------------(8)-------------5---------------------------|
G|----5-------------5-------------9--------------5---------------------------|
D|----7-------------7-------------9--------------7---------------------------|
A|----x-------------x-------------7--------------x---------------------------|
E|----x-------------x----------------------------x---------------------------|

End on...

                        Am  (let ring)
e|------------------5----0---------------------------------------------------|
B|------1-----4--5-------1---------------------------------------------------|
G|---2-----2-------------2---------------------------------------------------|
D|-----------------------2---------------------------------------------------|
A|-----------------------0---------------------------------------------------|
E|---------------------------------------------------------------------------|
Tap to rate this tab
 
# A B C D E F G H I J K L M N O P Q R S T U V W X Y Z