Rancid - Out Of Control tab

Intro:
 x - muted string
Part 1

Intro *Repeat 8 times.
E|----x-x-|---x-x-|---x---------|x8
B|----x-x-|---x-x-|---x---------|
G|--5-x-x-|---x-x-|---x-6-6-6-6-|
D|--5-x-x-|-3-x-x-|-6-x-6-6-6-6-|
A|--3-x-x-|-3-x-x-|-6-x-4-4-4-4-|
E|----x-x-|-1-x-x-|-4-x---------|

Verse
E|-------------|------------|------------|------------|
B|-------------|------------|------------|------------|
G|--5----------|------------|------------|------------|
D|--5----------|------------|------------|------------|
A|--3--------4-|-3--------4-|-3--------4-|-3--------4-|
E|-----1--4----|----1--4----|----1--4----|----1--4----|

Between verses
E|-----x-|-----x-|-----x-|---x---x---|
B|-----x-|-----x-|-----x-|---x---x---|
G|-6-5-x-|-5-4-x-|-----x-|---x---x---|
D|-6-5-x-|-5-4-x-|-6-5-x-|-5-x-5-x-5-|
A|-4-3-x-|-3-2-x-|-6-5-x-|-5-x-5-x-5-|
E|-----x-|-----x-|-4-3-x-|-3-x-3-x-3-|

--------------------Repeat Part 2 once------------------

Chorus *Repeat 3 times
E|-----x---x---x---|-----x---x---x---|x3 After last play this: |--------|
B|-----x---x---x---|-----x---x---x---|                         |--------|
G|-5---x---x---x---|---5-x---x---x---|                         |--------|
D|-5-6-x-6-x-6-x-6-|-6-5-x-5-x-5-x-5-|                         |-6----5-|
A|-3-6-x-6-x-6-x-6-|-6-3-x-3-x-3-x-3-|                         |-6----5-|
E|---4-x-4-x-4-x-4-|-4---x---x---x---|                         |-4----3-|

-----------------------------------------------------------------------------
Part 2

On Part 2 everything goes the same as on Part 1, just play Intro 4 times instead of 8.

After last chorus play Intro 3 times and to finish off strike
E|---| once.
B|---|
G|-5-|
D|-5-|
A|-3-|
E|---|
Tap to rate this tab
 
# A B C D E F G H I J K L M N O P Q R S T U V W X Y Z