Song name
# A B C D E F G H I J K L M N O P Q R S T U V W X Y Z

Rancid - Fall Back Down tab

Band: Rancid
Song: Fall Back Sown
Album: Indestructible (2003)
Tuning: Standard E A D G B E

This is the solo tab for rancids 'Fall Back Down' - I saw a lot of
tabs for the solos but almost every one was kinda wrong so I decided
to write my own tab for it. I know the two solos by Tim are kinda hard
but you just have to practice.. that's everything! Enjoy! 

 | #1. Solo                                           
 e|---------------------------------------------------------|
 B|---9999-1010--9999-1010--9999-1010--9~~------------------|
 G|---9999-1111--9999-1111--9999-1111--9~~------------------|
 D|---------------------------------------------------------|
 A|---------------------------------------------------------|
 E|---------------------------------------------------------|
  |                                                         |
 e|---------------------------------------------------------|
 B|---9999-1010--12121212-1010--12121212-1010--9-7-5~-------|
 G|---9999-1111--13131313-1111--13131313-1111--9-7-6~-------|
 D|---------------------------------------------------------|
 A|---------------------------------------------------------|
 E|---------------------------------------------------------|
  |                                                         |
 e|---------------------------------------------------------|
 B|---5/14-12-14-12-10-9999--5/14-12-14-12--9-9999----------|
 G|---5/14-13-14-13-11-9999--5/14-13-14-13-10-9999----------|
 D|---------------------------------------------------------|
 A|---------------------------------------------------------|
 E|---------------------------------------------------------|
  |                                                         |
 e|---------------------------------------------------------|
 B|---9999-1010--9999-1010--12121212-1010--9-9-9~~----------|
 G|---9999-1111--9999-1111--13131313-1111--9-9-9~~----------|
 D|---------------------------------------------------------|
 A|---------------------------------------------------------|
 E|---------------------------------------------------------|

  | #2. Solo                                             2x |
 e|---------------------------------------------------------|
 B|---------------------------------------------------------|
 G|---------------------------------------------------------|
 D|---------------------------------------------------------|
 A|---76767~----9-7-6-7~----9-7-77-66~----6-6-66-44~--------|
 E|---------------------------------------------------------|

  | #3. Solo                                             2x |
 e|---------------------------------------------------------|
 B|---12121212121212-10101010101010-9999999-9~--------------|
 G|---13131313131313-11111111111111-9999999-9~--------------|
 D|---------------------------------------------------------|
 A|---------------------------------------------------------|
 E|---------------------------------------------------------|
  |                                                2x |     |
 e|---------------------------------------------------|-----|
 B|---10101010-10--9999-9--10-9-10-12-14-1212-1010-9--|-9~--|
 G|---11111111-11--9999-9--11-9-11-13-14-1313-1111-9--|-9~--|
 D|---------------------------------------------------|-----|
 A|---------------------------------------------------|-----|
 E|---------------------------------------------------|-----|

If you have any questions or just wanna talk about some shit
Send me a mail: My Name's Chad - SuburbiaBomb@Web.De
Or visit my blog: SuburbiaBomb.Blogspot.Com
Tap to rate this tab
 
# A B C D E F G H I J K L M N O P Q R S T U V W X Y Z