Song name
# A B C D E F G H I J K L M N O P Q R S T U V W X Y Z

Rancid - 1998 tab

Help us improve GuitareTab! Take a short survey!
Tab by David Ross
Rancid - 1998


E   ----------------------------------------|
B   ----------------------------------------|
G   ----------------------------------------|
D   ---33-7---------------------------------|
A   ---33-7---------------------------------|
E   ---11-5---------------------------------|

E   ----------------------------------------|
B   ----------------------------------------|
G   ---7-5-3--------------------------------| X3
D   ---7-5-3-7------------------------------|
A   ---5-3-1-7------------------------------|
E   ---------5------------------------------|

E   ----------------------------------------|
B   ----------------------------------------|
G   ----------------------------------------|
D   ---3----7-------------------------------|
A   ---3-X4-7-X4----------------------------|
E   ---1----5-------------------------------|

E   ----------------------------------------|
B   ----------------------------------------|
G   ---7-5-3--------------------------------| X3
D   ---7-5-3-7------------------------------|
A   ---5-3-1-7------------------------------|
E   ---------5------------------------------|

E   ----------------------------------------|
B   ----------------------------------------|
G   ----------------------------------------|
D   ---3----7-------------------------------|
A   ---3-X4-7-X4----------------------------|
E   ---1----5-------------------------------|

E   ----------------------------------------|
B   ----------------------------------------|
G   ---7-5----------------------------------| X2
D   ---7-5-5-7------------------------------|
A   ---5-3-5-7------------------------------|
E   -------3-5------------------------------|

Wait

E   ----------------------------------------|
B   ----------------------------------------|
G   ----------------------------------------|
D   ---3----7-------------------------------|
A   ---3-X4-7-X4----------------------------|
E   ---1----5-------------------------------|

Wait

E   ----------------------------------------|
B   ----------------------------------------|
G   ---7-5-3--------------------------------| X3
D   ---7-5-3-7------------------------------|
A   ---5-3-1-7------------------------------|
E   ---------5------------------------------|

E   ----------------------------------------|
B   ----------------------------------------|
G   ----------------------------------------|
D   ---3----7-------------------------------|
A   ---3-X4-7-X4----------------------------|
E   ---1----5-------------------------------|

E   ----------------------------------------|
B   ----------------------------------------|
G   ---7-5----------------------------------| X2
D   ---7-5-5-7------------------------------|
A   ---5-3-5-7------------------------------|
E   -------3-5------------------------------|

E   ----------------------------------------|
B   ----------------------------------------|
G   ----------------------------------------|
D   ---3----7-------------------------------|
A   ---3-X4-7-X4----------------------------|
E   ---1----5-------------------------------|

E   ----------------------------------------|
B   ----------------------------------------|
G   ---55-----------------------------------| X3
D   ---55-55--------------------------------|
A   ---33-55--------------------------------|
E   ------33--------------------------------|

E   ----------------------------------------|
B   ----------------------------------------|
G   ----------------------------------------|
D   ---3----7-------------------------------|
A   ---3-X4-7-X4----------------------------|
E   ---1----5-------------------------------|

E   ----------------------------------------|
B   ----------------------------------------|
G   ---55-----------------------------------| X3
D   ---55-55--------------------------------|
A   ---33-55--------------------------------|
E   ------33--------------------------------|

E   ----------------------------------------|
B   ----------------------------------------|
G   ----------------------------------------|
D   ---33--7--------------------------------|
A   ---33--7--------------------------------|
E   ---11--5--------------------------------|

E   ----------------------------------------|
B   ----------------------------------------|
G   ---7-5-3--------------------------------| X3
D   ---7-5-3-7------------------------------|
A   ---5-3-1-7------------------------------|
E   ---------5------------------------------|

E   ----------------------------------------|
B   ----------------------------------------|
G   ----------------------------------------|
D   ---3----7-------------------------------|
A   ---3-X4-7-X4----------------------------|
E   ---1----5-------------------------------|

E   ----------------------------------------|
B   ----------------------------------------|
G   ---7-5-3--------------------------------| X3
D   ---7-5-3-7------------------------------|
A   ---5-3-1-7------------------------------|
E   ---------5------------------------------|

E   ----------------------------------------|
B   ----------------------------------------|
G   ----------------------------------------|
D   ---3----7-------------------------------|
A   ---3-X4-7-X4----------------------------|
E   ---1----5-------------------------------|

E   ----------------------------------------|
B   ----------------------------------------|
G   ---7-5----------------------------------| X2
D   ---7-5-5-7------------------------------|
A   ---5-3-5-7------------------------------|
E   -------3-5------------------------------|

E   ----------------------------------------|
B   ----------------------------------------|
G   ---7-5-3---7----------------------------|
D   ---7-5-3-7-7----------------------------|
A   ---5-3-1-7-5----------------------------|
E   ---------5------------------------------|
Related for 1998 tab