Song name
# A B C D E F G H I J K L M N O P Q R S T U V W X Y Z

Rancid - Seven Years Down tab

RANCID
LET'S GO! 1994
7 YEARS DOWN

Intro/Outro

e|---------------------------|
B|---------------------------|
G|-5---8-7-5---5-3-2-3-2-----|
D|------------------------3--|
A|---------------------------|
E|---------------------------|

Verse
     E5                F5       G5
e|----------------------------------------|
B|----------------------------------------|
G|----------------------------------------|
D|---2-2-2-2--2-2-2-2--3-3-3-3--5-5-5-5---|
A|---2-2-2-2--2-2-2-2--3-3-3-3--5-5-5-5---|
E|---0-0-0-0--0-0-0-0--1-1-1-1--3-3-3-3---|

Chorus
     C5               G5   F5
e|-----------------------------|
B|-----------------------------|
G|---5-5-5-5--5-5-5-5----------|
D|---5-5-5-5--5-5-5-5-5--5-3---|
A|---3-3-3-3--3-3-3-3-5--5-3---|
E|--------------------3--3-1---|

End

e|---------|
B|---------|
G|---5~~---|
D|---5~~---|
A|---3~~---|
E|---------|

THAT IS ONLY MY INTERPRETATION, YOU CAN PLAY THAT DIFFERENT WAY.
i got almost all tabs for rancid, if u wanna hav it here, just tell me
Tap to rate this tab
 
# A B C D E F G H I J K L M N O P Q R S T U V W X Y Z