Song name
# A B C D E F G H I J K L M N O P Q R S T U V W X Y Z

Rancid - I Am Forever tab

Artist:Rancid
Song:I Am Forever
Album:Rancid 2000

Guitar 2:Intro: w/distortion (play fairly fast)
E------------------------------------------------------------
B------------------------------------------------------------
G--------------------------11-11-11-11-11-11-----------------2x
D-888888-11-11-11-11-11-11-11-11-11-11-11-11-----------------
A-666666-11-11-11-11-11-11--9--9--9--9--9--9-----------------
E-666666--9--9--9--9--9--9-----------------------------------


Guitar 1:Intro
E------------------------------------------------------------
B------------------------------------------------------------
G--------------------------11-11-11-11-11-11-----------------
D-888888-11-11-11-11-11-11-11-11-11-11-11-11-----------------
A-666666-11-11-11-11-11-11--9--9--9--9--9--9-----------------
E-666666--9--9--9--9--9--9-----------------------------------

Guitar 1:play this while guitar 2 plays the first few power chords
(fast)
E------------------------------------------------------------
B------------------------------------------------------------
G-----9-11-11b^-9--------------------------------------------
D-9h11------------11-----------------------------------------
A------------------------------------------------------------
E------------------------------------------------------------
Guitar 1:the part where bass and guitar 2 pause
(Really fast)
E------------------------------------------------------------
B------------------------------------------------------------
G-4-3--------------------------------------------------------
D-----5-4----------------------------------------------------
A-------5-4--------------------------------------------------
E------------------------------------------------------------

Use the Intro chords for the chorus and other parts. Please Rate.
Tap to rate this tab
# A B C D E F G H I J K L M N O P Q R S T U V W X Y Z