Song name
# A B C D E F G H I J K L M N O P Q R S T U V W X Y Z

Rancid - Ooh La La tab

The song was a bit difficult to figure out since the only material of it is through 
MP3's and cut scenes from the YouTube video. Still working on figuring it out by ear.
~~~=let chord fully ring out

|D~~~~~~~~~--------------------------------|
|------------------------------------------|
|--2-2--2-4-2------------------------------|
|------------4-0--2-2---555-4-2-0----------|
|------------------------------------------|
|------------------------------------------|

|---------------------------------------|
|---------------------------------------|
|--444-2--------------------------------|
|-------2-4---555-4-2-0-----------------|
|---------------------------------------|
|---------------------------------------|
Tap to rate this tab
# A B C D E F G H I J K L M N O P Q R S T U V W X Y Z