Song name
# A B C D E F G H I J K L M N O P Q R S T U V W X Y Z

Rancid - Lock Step And Gone tab

Intro/Verse:

e|--------6--6--6-6---|
B|-6--6-6-6--6--6-6-6-|
G|-6--6-6-5--5--5-5-6-|
D|-6--6-6-4--4--4-4-6-|
A|-4--4-4-4--4--4-4-4-|
E|--------------------|



Chorus:

e|------------------------|------------------|
B|------------------------|------------------|
G|-6-6--------------------|--6-6-------------|
D|-6-6-2-2-6-6-4-4--(3x)--|--6-6-4-4-6-6-4-4-|
A|-4-4-2-2-6-6-4-4--------|--4-4-4-4-6-6-4-4-|
E|-----0-0-4-4-2-2--------|------2-2-4-4-2-2-|



Solo No. 1: (during both solos, the second guitar plays the first chorus riff)

e|-----9-9----9-9----9-9----9-9-9-9-9-9-9-|
B|-----9-9----9-9----9-9----9-9-9-9-9-9-9-|
G|--10b----10b----10b----10b--------------|
D|----------------------------------------|
A|----------------------------------------|
E|----------------------------------------|



Solo No. 2:

e|---------------------------|
B|---------------------------|
G|---9---9---9---9-11-11br-9-|
D|-11--11--11--11------------|
A|---------------------------|
E|---------------------------|



Post-Solo Bridge thingy:

e|------------------------|-----------------|
B|------------------------|-----------------|
G|---------4--------------|---------4-4-4-4-|
D|-2-2-2-2-4-4-6-6--(3x)--|-7-7-7-7-4-4-4-4-|
A|-2-2-2-2-2-4-6-6--------|-7-7-7-7-2-2-2-2-|
E|-0-0-0-0---2-4-4--------|-5-5-5-5---------|



Outro: (at the end of the last verse)

*the pause here lasts about two measures.

e|---------4--|
B|---------6--|
G|-6~------6--|
D|-6~--*---6--|
A|-4~------4--|
E|------------|



Order:

Intro
Verse
Chorus
Verse
Chorus
Verse (softer this time)
Solo No. 1
Break (bass solo No. 1)
Solo No. 2
Break (bass solo No. 2)
Bridge
Chorus
Verse 2x
Outro
Tap to rate this tab
 
# A B C D E F G H I J K L M N O P Q R S T U V W X Y Z