Song name
# A B C D E F G H I J K L M N O P Q R S T U V W X Y Z

Rancid - Dope Sick Girl tab

Help us improve GuitareTab! Take a short survey!
Artist:  Rancid
Song:  Dope Sick Girl
Album:  Let's Go

  (bass enters)

  Intro
                                                     
e|-5~-5~-5~-|-10-10-10-12-12-12-|
B|----------|-10-10-10-12-12-12-|
G|----------|-------------------|
D|----------|-------------------|
A|----------|-------------------|
E|----------|-------------------|

  Main Riff:
                    x3
e|-------------8-7-5-|-5-7-8-7-5---|           |-5-5-5\-|
B|-5h8-5h8-5h8-------|-----------8-|           |-5-5-5\-|
G|-------------------|-------------| Play this |--------|
D|-------------------|-------------| after the |--------|
A|-------------------|-------------| 2nd time. |--------|
E|-------------------|-------------|           |--------|

  Verse:
  A5  D5  A5  E5  A5
e|-------------------|
B|-----3-------------|
G|-2---2---2-------2-|
D|-2---0---2---2---2-|
A|-0-------0---2---0-|
E|-------------0-----|

  Chorus (palm muted):
  D5  A5  E5  A5              E5
e|---------------|           |---|
B|-3-------------|           |---|
G|-2---2-------2-| Play this |---|
D|-0---2---2---2-| After the |-2-|
A|-----0---2---0-| 2nd time. |-2-|
E|---------0-----|           |-0-|

  Outro:

e|-8---4/5-4/5---8---5-4-5-0---8--8--8--8--8--5\-|
B|-7---4/5-4/5---7---5-4-5-0---7b-7b-7b-7b-7b-5\-|
G|-----------------------------------------------|
D|-----------------------------------------------|
A|-----------------------------------------------|
E|-----------------------------------------------|

| /  slide up
| \  slide down
| h  hammer-on
| ~  vibrato

Please rate and comment with corrections if necessary.
Related for Dope Sick Girl tab