Song name
# A B C D E F G H I J K L M N O P Q R S T U V W X Y Z

Rancid - Killing Zone tab

Intro/Main Riff (Single notes are palm-muted and chords are not)
E-----------------------------------------|
B-----------------------------------------|
G----------------------6---6-8888-666-----|
D----8---8---8---88----6---6-8888-666-----|
A----8---8---8---88-44-4-4-4-6666-444-----|
E-66-6-6-6-6-6-6-66-----------------------|

Pre-Chorus
E-----------------------------------------|
B-----------------------------------------|
G-13----11-11-13----11~-------------------|
D-13-11-11-11-13-11-11~-------------------|
A-11-11--9--9-11-11--9~-------------------|
E-----9-----------9-----------------------|

Chorus
E-----------------------------------------|
B-----------------------------------------|
G-----------------6-6-6-6-6-6-6-6---------|
D-8-8-8-8-8-8-8-8-6-6-6-6-6-6-6-6---------|
A-8-8-8-8-8-8-8-8-4-4-4-4-4-4-4-4---------|
E-6-6-6-6-6-6-6-6-------------------------|

Solo
E----------------------------------------------|
B-10b-10b~-10b-10b~-10b-10b~-10b-10b~----------|
G----------------------------------------------|
D----------------------------------------------|
A----------------------------------------------|
E----------------------------------------------|

Solo cont.
E-12121212-14141414-16161616-12121212-14141414-16-R-|
B-------------------------------------------------E-|
G-------------------------------------------------S-|
D-------------------------------------------------T-|
A---------------------------------------------------|
E---------------------------------------------------|

Order is pretty self explanatory.
Tap to rate this tab
# A B C D E F G H I J K L M N O P Q R S T U V W X Y Z