Song name
# A B C D E F G H I J K L M N O P Q R S T U V W X Y Z

Rancid - Ivory Coast tab

Band  : Rancid
Song  : "Ivory Coast"
Album : "Indestructible"
Transcribed By: Darkasagothkirby@aol.com
[AKA nephelim,the on UG.com]

Intro:
(Repeat as nessicary)
E|-----------------------------|
B|-----------------------------|
G|-----------------------------|
D|-10-10-10-10-10-10-10--------|
A|--8--8--8--8--8--8--8--"GO!"-|
E|-----------------------------|

Verse:
(Play twice,Timing, and number of strums not noted.)
E|----------|
B|----------|
G|----------|
D|----8-----|
A|-8--6--8--|
E|-6-----6--|
PM.........

Verse changes to:
(Play as nessicary,again, no timing or strums notated.)
E|-----------|
B|-----------|
G|-----------|
D|-10--8-----|
A|--8--6--8--|
E|--------6--|

Then theres a tremolo on these:
E|--------|
B|--------|
G|--------|
D|-10--8--|
A|--8--6--|
E|--------|

Chorus:
(Play as nessicary)
E|-----------|
B|-----------|
G|-----------|
D|--------8--|
A|-8------6--|
E|-6---------|

Then Theres this interlude part somewhere:
(Repeat as nessicary)
E|-----------------------|
B|-----------------------|
G|-----------------------|
D|-10-10-10-10-10-10-11--|
A|--8--8--8--8--8--8--9--|
E|-----------------------|

Then the intro at the end.
Tap to rate this tab
# A B C D E F G H I J K L M N O P Q R S T U V W X Y Z