Song name
# A B C D E F G H I J K L M N O P Q R S T U V W X Y Z

Rancid - David Courtney tab

its pretty improvised but sounds alright

e---------------------------------------------------------------------|
B---------------------------------------6-7-8-7-6---6---10b----10b-9--|b
G-5-7-5-7-5-7p5---5-7-5-7-5-7p5---5-6-7-----------7-----9----9--------|
D---------------5---------------5-------------------------------------|
A---------------------------------------------------------------------|
E---------------------------------------------------------------------|

e--------------------------------------------------------------------|
B-8-7-6----------------------------------------5---------------------|
G-------7-6-5-----------5-6-7----5-7-5-5-7p5---5-7-5-7-5-7p5---------|
D-------------7-6-5-6-7-----7----------------7---------------5-------|
A--------------------------------------------------------------------|
E--------------------------------------------------------------------|

e---------------------10-10-10-10-10-9-8-10-9-8----------------------|
B-5---------------7~--10-10-10-10---------------10-9-8-10-9-8--------|
G-5-7-5-7-5-7p5-7---------------------------------------------9-8-7--|
D---------------7----------------------------------------------------|
A--------------------------------------------------------------------|
E--------------------------------------------------------------------|

e-------------------------|
B-------------------------|
G-----------7~~-----------|
D-9-8-7-8-9---------------|
A-------------------------|
E-------------------------|
Tap to rate this tab
# A B C D E F G H I J K L M N O P Q R S T U V W X Y Z