Song name
# A B C D E F G H I J K L M N O P Q R S T U V W X Y Z

Rancid - Tropical London tab

-------------------------------------------------------------------------------
			   Tropical London-Rancid
-------------------------------------------------------------------------------
Tabbed by: Capptress Kidd
Email: capptresskidd926@yahoo.com

Tuning:Standard

Yes I have both solos

Intro
Guitar 1
e|------------------------------------------------------------------------------|
B|------------------------------------------------------------------------------|
G|------------------------------------------------------------------------------|
D|---------------------------------play 2 times---------------------------------|
A|--1-0-----3-1---66666-5-3-1---------------------------------------------------|
E|------3-----------------------------------------------------------------------|


Intro
Guitar 2
e|-3~----3----6~-----------6~---------------------------------------------------------|
B|-3~----4----6~-----------6~---------------------------------------------------------|
G|-3~----5----6~-----------6~---------------------------------------------------------|
D|-5~----5----8~-----------8~---------------------------------------------------------|
A|-5~----3----8~-----------8~---------------------------------------------------------|
E|-3~---------6~-----------6~---------------------------------------------------------|


Chorus
Both Guitars
e|------------------------------------------------------------------------------------|
B|------------------------------------------------------------------------------------|
G|------------8-----------------------------------------------------------------------|
D|-8-----5----8-x8--------------------------------------------------------------------|
A|-8-x8--5-x8-6-----------------------------------------------------------------------|
E|-6-----3----------------------------------------------------------------------------|
Pm.............................................................................

Verse part 1
Both
e|-------------------------------------------------------------------------------------|
B|-------------------------------------------------------------------------------------|
G|--------88-88------play 3 times------------------------------------------------------|
D|-55-55--88-88------------------------------------------------------------------------|
A|-55-55--66-66------------------------------------------------------------------------|
E|-33-33-------------------------------------------------------------------------------|

Verse Part 2
guitar one
e|---------------------------------------------------------------------------------|
B|---------------------------------------------------------------------------------|
G|------8--------------------------------------------------------------------------|
D|-8----8--x8----------------------------------------------------------------------|
A|-8-x8-6--------------------------------------------------------------------------|
E|-6-------------------------------------------------------------------------------|
Pm.............................................................................

Verse part 2
e|---------------------------------------------------------------------------------|
B|---------------------------------------------------------------------------------|
G|-----8~--------------------------------------------------------------------------|
D|-8~--8~--------------------------------------------------------------------------|
A|-8~--6~--------------------------------------------------------------------------|
E|-6~------------------------------------------------------------------------------|

Chorus

verse

Bridge
guitar one
e|-----------------------|
B|-----------------------|
G|---5-------------------|
D|-5-5--8----------------|
A|-5-3--8---66666-5-3-1--|
E|-3----6----------------|

Bridge
guitar 2
e|-3~----3----6~-----------6~---------------------------------------------------------|
B|-3~----4----6~-----------6~---------------------------------------------------------|
G|-3~----5----6~-----------6~---------------------------------------------------------|
D|-5~----5----8~-----------8~---------------------------------------------------------|
A|-5~----3----8~-----------8~---------------------------------------------------------|
E|-3~---------6~-----------6~---------------------------------------------------------|


solo #1
Guitar 1
e|--------------------------------------------------------------------------------|
B|--------------------------------------------------------------------------------|
G|--------------------------------------------------------------------------------|
D|-------------------88888-555----------88888-555---------------------------------|
A|---------5-8888888----------8888888-------------88888-555-----------------------|
E|-66666-8--------------------------------------------------88888888-66666666-----|

Solo #1-
Guitar 2- Just plays the chorus behind the solo

Bridge
Both
e|---------------------------------------------------------------------------------------|
B|---------------------------------------------------------------------------------------|
G|--------3-----8------------------------------------------------------------------------|
D|--5-----3-x12-8-x12-8------------------------------------------------------------------|
A|--5-x12-5-----6-----8-x12--------------------------------------------------------------|
E|--3-----------------6------------------------------------------------------------------|

solo #2
Guitar 1
e|---------------------------------------------------------------------------------|
B|---------------------------------------------8----8------------------------------|
G|------------------------------------------10---10---10-----7----------33-3-----3-|
D|--------------------------------------------------------10-------3-h5------3h5---|
A|-55555555--5/3-3-3/1-1-------3-5--3----------------------------------------------|
E|-------------------------3-6--------6--------------------------------------------|

Solo 2
Guitar 2- plays chorus behind the solo

Chorus (No Guitars)

ending (play till the end)
Both
e|-------------------------------------------------------------------------------------|
B|-------------------------------------------------------------------------------------|
G|-------------------------------------------------------------------------------------|
D|-8---8---------5---5-----------------------------------------------------------------|
A|-8---8-x8------5---5-x8--------------------------------------------------------------|
E|-6---6---------3---3-----------------------------------------------------------------|
       pm.......     pm........

|Pm. Palm Mute
| ~  let ring
| /  slide up
| \  slide down
| h  hammer-on
| p  pull-off
| v  vibrato
| +  harmonic
| x  play # of times
===============================================================================
Tap to rate this tab
 
# A B C D E F G H I J K L M N O P Q R S T U V W X Y Z