Song name
# A B C D E F G H I J K L M N O P Q R S T U V W X Y Z

Rancid - Spirit Of 87 tab

Band: Rancid
Song: "Spirit of '87"
Album: "Indestructible"

Transcribed by: Darkasagothkirby@aol.com
nephelim,the at UG.com

Chorus:

E:---------------------------------:
B:---------------------------------:
G:---------7-7-7-7-4-4-4-4-2-2-2-2-:
D:-4-4-4-4-7-7-7-7-4-4-4-4-2-2-2-2-:
A:-4-4-4-4-5-5-5-5-2-2-2-2-0-0-0-0-:
E:-2-2-2-2-------------------------:

VERSE:
[important, only repeat PM chords]

    14x  14x  14x 8x8x
E:---------------------:
B:---------------------:
G:-2-2--7-7--4-4----4--:
D:-2-2--7-7--4-4--4-4--:
A:-0-0--5-5--2-2--4-2--:
E:----------------2----:
PM   .    .    .  . .

every once in a while he plays:
E:----------:
B:----------:
G:-4~-7~-2~-:
D:-4~-7~-2~-:
A:-2~-5~-0~-:
E:----------:

Sorry, the solo is way too distorted to hear under the heavy chorus.
Tap to rate this tab
# A B C D E F G H I J K L M N O P Q R S T U V W X Y Z