Song name
# A B C D E F G H I J K L M N O P Q R S T U V W X Y Z

Rancid - Django tab

BAND : RANCID
SONG : DJANGO
TABBED BY : QUINCY SLOAN
WORKED OUT BY : RICHARD "THE MULLET"

INTRO - work out strummings etc. yourself
E :-----------------------------------------------------------------
B :-----------------------------------------------------------------
G :-------------6666---6---6---5555---5---5---6666---6---6----------
D :-----6---6--------6---6---6------6---6---6------6---6------------
A :-4-7---7---7---------------------------------------------7-------
E :-----------------------------------------------------------------

VERSE - heavy palm muting and up and down picking
E :---------------------------------------------------------------------
B :---------------------------------------------------------------------
G :-6-6-6-6-6-6-6-6--6-6-6-6-6-6-6-6-------------------6-6-6-6-6-6-6-6--
D :-6-6-6-6-6-6-6-6--6-6-6-6-6-6-6-6--6-6-6-6-6-6-6-6--6-6-6-6-6-6-6-6--
A :-4-4-4-4-4-4-4-4--4-4-4-4-4-4-4-4--6-6-6-6-6-6-6-6--4-4-4-4-4-4-4-4--
E :-----------------------------------4-4-4-4-4-4-4-4-------------------

CHORUS
E :-----------------------------------
B :-----------------------------------
G :-----------------------------------
D :-4-4-4-4-4-4-4-4--6-6-6-6-6-6-6-6--
A :-4-4-4-4-4-4-4-4--6-6-6-6-6-6-6-6--
E :-1-1-1-1-1-1-1-1--4-4-4-4-4-4-4-4--

SOLO - something like this (just improvise)
E :---------------------------------
B :-7-5-7-5-7-5-5-7^----------------
G :-7-5-7-5-7-5-5-7^----------------
D :---------------------------------
A :---------------------------------
E :---------------------------------
Tap to rate this tab
# A B C D E F G H I J K L M N O P Q R S T U V W X Y Z