Song name
# A B C D E F G H I J K L M N O P Q R S T U V W X Y Z

Rancid - Indestructable tab

Rancid-Indestructible Album
"Indestructible"
      A         F#    D
And I know, I'm indestructible
And I know, I'm indestructible
Tonight!
D      A       Bm                A
Break down! Caught tell me its not true
It's a shakedown! Come on tell me who are you
It's so fake now, everything I see right through
I'm ashamed now, to say I ever know you

See the greater minions make a move on their feet
Kill them anywhere from here even from the head
Girls that seem so hot and I'm just sitting here laughing
I'm gonna keep going up, I can't get distracted

And I know, I'm indestructible
And I know, I'm indestructible
Tonight!

Lay back! Why cant you all come and save me
And you will never betray me
And I'll give back everything that you gave me
And I know that no one can never ever contain me

And I, walking I walk down to some American consumer, nah
And I'm dancing now to a whole different drummer
And I keep listening to the great Joe Strummer
cause through music, we can live forever

And I know, I'm indestructible
And I know, I'm indestructible
Tonight!

“Fall Back Down”
Intro (Guitar 1-clean w/ reverb)

e----------------------------------|
B-9-------10------14-------9-------|
G-9-------11------14-------9-------|
D-9-------11------14-------9-------|
A-7--------9------12-------7-------|
E----------------------------------|

Verse (Guitar 2-distortion)

e----------------------------------|
B-9---------------10---------------|
G-9---------------11---------------|
D-9---------------11---------------|
A-7----------------9---------------|
E----------------------------------|

e----------------------------------|
B-14---------------9---------------|
G-14---------------9---------------|
D-14---------------9---------------|
A-12---------------7---------------|
E----------------------------------|

e----------------------------------|
B-9---------------10---------------|
G-9---------------11---------------|
D-9---------------11---------------|
A-7----------------9---------------|
E----------------------------------|

e----------------------------------|
B-14-------------------------------|
G-14---------------444444444444444-|
D-14---------------444444444444444-|
A-12---------------222222222222222-|
E----------------------------------|

e-----------------|
B-----------------|
G-444444444444444-
D-444444444444444-
A-222222222222222-
E-----------------

Verse (Guitar 1-distortion)

e-0---------------2----------------|
B-0---------------2----------------|
G-1---------------2----------------|
D-2---------------4----------------|
A-2---------------4----------------|
E-0---------------2----------------|

e-0---------------0----------------|
B-2---------------0----------------|
G-2---------------1----------------|
D-2---------------2----------------|
A-0---------------2----------------|
E-----------------0----------------|

e-0---------------2----------------|
B-0---------------2----------------|
G-1---------------2----------------|
D-2---------------4----------------|
A-2---------------4----------------|
E-0---------------2----------------|

e-0---------------0----------------|
B-2---------------0----------------|
G-2---------------1--4-x32---------|
D-2---------------2--4-x32---------|
A-0---------------2--2-x32---------|
E-----------------0----------------|

Chorus (Guitars 1 and 2-distortion)

e-000000-222222-000000-000000-|
B-000000-222222-222222-000000-|
G-111111-222222-222222-111111-|
D-222222-444444-222222-222222-|     x4
A-222222-444444-000000-222222-|
E-000000-222222--------000000-|

Interlude (Guitar 1-distortion)

e-444444444444444-000000000000000--|
B-555555555555555-000000000000000--|
G-666666666666666-111111111111111--|
D-666666666666666-222222222222222--|
A-444444444444444-222222222222222--|
E-----------------000000000000000--|
                  			x2
e----------------------------------|
B----------------------------------|
G-444444444444444-222222222222222--|
D-444444444444444-222222222222222--|
A-222222222222222-000000000000000--|
E----------------------------------|

Interlude (Guitar 2-distortion)

e----------------------------------|
B----------------------------------|
G-666666666666666-999999999999999--|
D-666666666666666-999999999999999--|
A-444444444444444-777777777777777--|
E----------------------------------|
					x2
e----------------------------------|
B----------------------------------|
G-444444444444444-222222222222222--|
D-444444444444444-222222222222222--|
A-222222222222222-000000000000000--|
E----------------------------------|

Tim's Solo (Guitar 1-clean)

e----------------------------------|
B-9999-10--9999-10--9999-10--9~----|
G-9999-11--9999-11--9999-11--9~----|
D----------------------------------|
A----------------------------------|
E----------------------------------|

e---------------------------------------------|
B-9999-10/-12121212-10/-12--------12-10-10-99-|
G-9999-11/-13131313-11/-13--------13-11-11-99-|
D---------------------------------------------|
A---------------------------------------------|
E---------------------------------------------|

e---------------------------------------|
B-14-12-10/12-12-10109--14-12-1010-9999-|
G-14-13-11/13-13-11119--14-13-1111-9999-|
D---------------------------------------|
A---------------------------------------|
E---------------------------------------|

e---------------------------------------|
B-9999-10--9999-10/-12121212-10-10-9999-|
G-9999-11--9999-11/-13131313-11-11-9999-|
D---------------------------------------|
A---------------------------------------|
E---------------------------------------|

(First measure of second verse)

e----------------------------------|
B-99~------------------------------|
G-99~------------------------------|
D----------------------------------|
A----------------------------------|
E----------------------------------|

Guitar 2 plays this under Tim's solo

e-0000000-2222222-0000000-00000000-|
B-0000000-2222222-2222222-00000000-|
G-1111111-2222222-2222222-11111111-|
D-2222222-4444444-2222222-22222222-|     x4
A-2222222-4444444-0000000-22222222-|
E-0000000-2222222---------00000000-|

verse and chorus...and then...

Lars' solo (Guitar 2-distortion w/ some sort of boost/overdrive)

(starts at very end of chorus)
e----------------------------------|
B----------------------------------|
G----------------------------------|
D----------------------------------|
A-7p6h7p6h7~--9-7-6-7~--9-777p6~---|
E----------------------------------|

e----------------------------------|
B----------------------------------|
G----------------------------------|
D----------------------------------|
A-6666p4~--------------------------|
E----------------------------------|

e----------------------------------|
B----------------------------------|
G----------------------------------|
D----------------------------------|
A-7p6h7p6h7~--9-7-6-7~--9-777p6~---|
E----------------------------------|

e----------------------------------|
B----------------------------------|
G----------------------------------|
D----------------------------------|
A-6666p4~--------------------------|
E----------------------------------|

Guitar 1 plays this under Lar's solo

e----------------------------------|
B----------------------------------|
G-666666666666666-999999999999999--|
D-666666666666666-999999999999999--|
A-444444444444444-777777777777777--|
E----------------------------------|
x2
e----------------------------------|
B----------------------------------|
G-444444444444444-222222222222222--|
D-444444444444444-222222222222222--|
A-222222222222222-000000000000000--|
E----------------------------------|

Last chorus (Guitars 1 and 2-distortion)

e-0-0-----2-2-----0-0-----0-0------|
B-0-0-----2-2-----2-2-----0-0------|
G-1-1-----2-2-----2-2-----1-1------|
D-2-2-----4-4-----2-2-----2-2------|
A-2-2-----4-4-----0-0-----2-2------|
E-0-0-----2-2-------------0-0------|

e-0-0-----2-2-----0-0-----0-0------|
B-0-0-----2-2-----2-2-----0-0------|
G-1-1-----2-2-----2-2-----1-1------|
D-2-2-----4-4-----2-2-----2-2------|
A-2-2-----4-4-----0-0-----2-2------|
E-0-0-----2-2-------------0-0------|

e-000000-222222-000000-000000-|
B-000000-222222-222222-000000-|
G-111111-222222-222222-111111-|
D-222222-444444-222222-222222-|     x6
A-222222-444444-000000-222222-|
E-000000-222222--------000000-|

Outro (Guitar 1-clean)

e---------------------------------------------|
B---12121212121212/10101010101010/9999999~----|
G---13131313131313/11111111111111/9999999~----|
D---------------------------------------------|
A---------------------------------------------|
E---------------------------------------------|

e---------------------------------------------|
B-1212121212121212/10101010101010/9999999~----|
G-1313131313131313/11111111111111/9999999~----|
D---------------------------------------------|
A---------------------------------------------|
E---------------------------------------------|

e-----------------------------------------------|
B-1010101010-999-1010101010-999-10-12-10-10109~-|
G-1111111111-999-1111111111-999-11-13-10-10109~-|
D-----------------------------------------------|
A-----------------------------------------------|
E-----------------------------------------------|

e------------------------------------------------|
B-1010101010-999-1010101010101010-14-12-10109999-|
G-1111111111-999-1111111111111111-14-13-10109999-|
D------------------------------------------------|
A------------------------------------------------|
E------------------------------------------------|

Outro (Guitar 2-distortion)

e-0000000-2222222-0000000-00000000-|
B-0000000-2222222-2222222-00000000-|
G-1111111-2222222-2222222-11111111-|
D-2222222-4444444-2222222-22222222-|     x4
A-2222222-4444444-0000000-22222222-|
E-0000000-2222222---------00000000-|

Ending (Guitar 1-clean)

e----------------------------------|
B-9~-------------------------------|
G-9~-------------------------------|
D----------------------------------|
A----------------------------------|
E----------------------------------|

Ending (Guitar 2-distortion)

e-0~-------------------------------|
B-0~-------------------------------|
G-1~-------------------------------|
D-2~-------------------------------|
A-2~-------------------------------|
E-0~-------------------------------|

“Red Hot Moon”
Intro
Gtr.1
E|---------------------------------------------------------------------||
B|---------------------------------------------------------------------||
G|------5-5~~~-----5-7b(9)(9)(9)(9)(9)r7-5-5----5-5-------5-----7-9-7-5||
D|--5h7--------5h7----------------------------------7-5-7--------------||
A|---------------------------------------------------------------------||
E|---------------------------------------------------------------------||

Gtr.2
        |  C5  |   F5  |       G5      |   C5  |   F5  |     G5        |
E|---------------------------------------------------------------------||
B|---------------------------------------------------------------------||
G|------5-5-5-5-------------------------5-5-5-5------------------------||
D|------5-5-5-5-3-3-3-3-5-5-5-5-5-5-5-5-5-5-5-5-3-3-3-3-5-5-5-5-5-5-5-5||
A|------3-3-3-3-3-3-3-3-5-5-5-5-5-5-5-5-3-3-3-3-3-3-3-3-5-5-5-5-5-5-5-5||
E|--------------1-1-1-1-3-3-3-3-3-3-3-3---------1-1-1-1-3-3-3-3-3-3-3-3||
PM      ...............................................................

Chorus
Gtr.1 and Gtr.2
        Under the red hot moon          Under the red hot moon
E|---------------------------------------------------------------------||
B|---------------------------------------------------------------------||
G|------5-5-5-5-------------------------5-5-5-5------------------------||
D|------5-5-5-5-3-3-3-3-5-5-5-5-5-5-5-5-5-5-5-5-3-3-3-3-5-5-5-5-5-5-5-5||
A|------3-3-3-3-3-3-3-3-5-5-5-5-5-5-5-5-3-3-3-3-3-3-3-3-5-5-5-5-5-5-5-5||
E|--------------1-1-1-1-3-3-3-3-3-3-3-3---------1-1-1-1-3-3-3-3-3-3-3-3||
PM      ...............................................................

Verse
 |      A      |     F     |     D     |     F     |
E|--0-0-0-0-0-0-1-1-1-1-1-1-2-2-2-2-2-2-1-1-1-1-1-1--------------------||
B|--2-2-2-2-2-2-1-1-1-1-1-1-3-3-3-3-3-3-1-1-1-1-1-1--------------------||
G|--2-2-2-2-2-2-3-3-3-3-3-3-2-2-2-2-2-2-3-3-3-3-3-3--------------------||
D|--2-2-2-2-2-2-4-4-4-4-4-4-0-0-0-0-0-0-4-4-4-4-4-4--------------------||
A|--0-0-0-0-0-0--------------------------------------------------------||
E|---------------------------------------------------------------------||
PM  ...   ...   ...   ...   ...   ...   ...   ...
That is played 3 times, the last time plays a G instead of the last F
 |     A       |     F     |     D     |     G     |
E|--0-0-0-0-0-0-1-1-1-1-1-1-2-2-2-2-2-2-3-3-3-3-3-3--------------------||
B|--2-2-2-2-2-2-1-1-1-1-1-1-3-3-3-3-3-3-3-3-3-3-3-3--------------------||
G|--2-2-2-2-2-2-3-3-3-3-3-3-2-2-2-2-2-2-0-0-0-0-0-0--------------------||
D|--2-2-2-2-2-2-4-4-4-4-4-4-0-0-0-0-0-0-0-0-0-0-0-0--------------------||
A|--0-0-0-0-0-0-------------------------2-2-2-2-2-2--------------------||
E|--------------------------------------3-3-3-3-3-3--------------------||
PM  ...   ...   ...   ...   ...   ...   ...   ...

Chorus

Verse

Chorus

Verse

Chorus

Interlude (with Rob Aston)
        |  C5  |   F5  |       G5      |   C5  |   F5  |     G5        |
E|---------------------------------------------------------------------||
B|---------------------------------------------------------------------||
G|------5-5-5-5-------------------------5-5-5-5------------------------||
D|------5-5-5-5-3-3-3-3-5-5-5-5-5-5-5-5-5-5-5-5-3-3-3-3-5-5-5-5-5-5-5-5||
A|------3-3-3-3-3-3-3-3-5-5-5-5-5-5-5-5-3-3-3-3-3-3-3-3-5-5-5-5-5-5-5-5||
E|--------------1-1-1-1-3-3-3-3-3-3-3-3---------1-1-1-1-3-3-3-3-3-3-3-3||
PM      ...............................................................
(This plays 6 times before fade out)

|------------------------------------------|
|------------------------------------------|
|-7777------7777-----------7777-9999-------|
|-7777-7777-7777-5555-5555-7777-9999-7777--|  x 2
|-5555-7777-5555-5555-5555-5555-7777-7777--|
|------5555------3333-3333-----------5555--|


|-------------------------------------------------------------------------|
|-------------------------------------------------------------------------|
|-7-777777----------7-777777-------------------7-777777-9-999999----------|
|-7-777777-7-777777-7-777777-5-555555-5-555555-7-777777-9-999999-5-555555-|
|-5-555555-7-777777-5-555555-5-555555-5-555555-5-555555-7-777777-5-555555-|
|----------5-555555----------3-333333-3-333333-------------------5-555555-|
P.M ......   ......   ......   ......   ......   ......   ......   ......

|-------------------------------------------|
|-------------------------------------------|
|------------4444---------------------------|
|-5555-------4444- x16 -5555-------4444-----|
|-5555- x16 -2222-------5555- x16 -4444-x16-|
|-3333------------------3333-------2222-----|

|------------------------------------------|
|------------------------------------------|
|-7777------7777-----------7777-9999-------|
|-7777-7777-7777-5555-5555-7777-9999-7777--|  x 2
|-5555-7777-5555-5555-5555-5555-7777-7777--|
|------5555------3333-3333-----------5555--|

|-------------------------------------------------------------------------|
|-------------------------------------------------------------------------|
|-7-777777----------7-777777-------------------7-777777-9-999999----------|
|-7-777777-7-777777-7-777777-5-555555-5-555555-7-777777-9-999999-5-555555-|
|-5-555555-7-777777-5-555555-5-555555-5-555555-5-555555-7-777777-5-555555-|
|----------5-555555----------3-333333-3-333333-------------------5-555555-|
P.M ......   ......   ......   ......   ......   ......   ......   ......

|-------------------------------------------|
|-------------------------------------------|
|------------4444---------------------------|
|-5555-------4444- x16 -5555-------4444-----|
|-5555- x16 -2222-------5555- x16 -4444-x16-|
|-3333------------------3333-------2222-----|

|------------------------------------------|
|------------------------------------------|
|-7777------7777-----------7777-9999-------|
|-7777-7777-7777-5555-5555-7777-9999-7777--|  x 2
|-5555-7777-5555-5555-5555-5555-7777-7777--|
|------5555------3333-3333-----------5555--|

(solo)
|-------------------------------------------------------------------------|
|-------------------------------------------------------------------------|
|-7-777777----------7-777777-------------------7-777777-9-999999----------|
|-7-777777-7-777777-7-777777-5-555555-5-555555-7-777777-9-999999-5-555555-|
|-5-555555-7-777777-5-555555-5-555555-5-555555-5-555555-7-777777-5-555555-|
|----------5-555555----------3-333333-3-333333-------------------5-555555-|
P.M ......   ......   ......   ......   ......   ......   ......   ......

|------------------------------|     |-------------------|
|------------------------------|     |-------------------|
|------------44444444-22222222-|     |-------------------|
|---5555-----44444444-44444444-| x 3 |-5555-----4444-----|
|---5555-x16-22222222-22222222-|     |-5555-x16-4444-x16-|
|---3333-----------------------|     |-3333-----2222-----|
P.M.....                               ....

|----------------------------------|
|----------------------------------|
|-7-------7-----------7---9--------|
|-7---7---7---5---5---7---9---7----|
|-5---7---5---5---5---5---7---7----|
|-----5-------3---3-----------5----|

|------------------------------------------|---|
|------------------------------------------|---|
|-7777------7777-----------7777-9999-------|-7-|
|-7777-7777-7777-5555-5555-7777-9999-7777--|-7-|
|-5555-7777-5555-5555-5555-5555-7777-7777--|-5-|
|------5555------3333-3333-----------5555--|---|

“Start Now”
|----------------------------------------------------|
|----------------------------------------------------|
|----------------------------------------------------|
|--------------------------------11-11-12-12-12------|
|-9-9-9-9-9-9-9-9-7-7-7-12-12-12---------------------|
|----------------------------------------------------|
pm. . . . . . . . . . . .  .  .  .  .  .  .  .  .

|--------------------------------------------------------|
|--------------------------------------------------------|
|--------------------------------------------------------|
|--------------------------------11-11-12-12-12---12-12--|
|-9-9-9-9-9-9-9-9-7-7-7-12-12-12----------------12-------|
|--------------------------------------------------------|
  . . . . . . . . . . . .  .  .  .  .  .  .  .  . .  .
|-------------------------------------------------------------------------|
|-------------------------------------------------------------------------|
|-------------------------------------------------------------------------|
|-11-11-11-11-11-11-11-11-12-12-12-12-12---12-12-11-11-11-11-11-11-11-11--|
|----------------------------------------12-------------------------------|
|-------------------------------------------------------------------------|
  .  .  .  .  .  .  .  .  .  .  .  .  .  . .  .  .  .  .  .  .  .  .  .

|--------------------------------------------------------------------------|
|--------------------------------------------------------------------------|
|-7-777777----------7-777777----------7-777777-----------------------------|
|-7-777777-7-777777-7-777777-7-777777-7-777777-7-777777-9-999999-7-777777--|
|-5-555555-7-777777-5-555555-7-777777-5-555555-7-777777-9-999999-7-777777--|
|--------  5-555555----------5-555555----------5-555555-7-777777-5-555555--|
    ......   ......   ......   ......   ......   ......   ......   ......

|--------------|
|--------------|
|-7--11-----9--|
|-7--11--9--9--|
|-5---9--9--7--|
|--------7-----|

|-5-55-55---------7-77-77----------|
|-5-55-55-9-99-99-7-77-77-7-77-77--|
|-6-66-66-9-99-99-7-77-77-7-77-77--|
|-7-77-77-9-99-99-9-99-99-7-77-77--| x2
|-7-77-77-7-77-77-9-99-99-5-55-55--|
|-5-55-55---------7-77-77----------|

|--------------------------------------------------------------------------|
|--------------------------------------------------------------------------|
|-7-777777----------7-777777----------7-777777-----------------------------|
|-7-777777-7-777777-7-777777-7-777777-7-777777-7-777777-9-999999-7-777777--|
|-5-555555-7-777777-5-555555-7-777777-5-555555-7-777777-9-999999-7-777777--|
|--------  5-555555----------5-555555----------5-555555-7-777777-5-555555--|
    ......   ......   ......   ......   ......   ......   ......   ......
(repeat)
|--------------|
|--------------|
|-7--11-----9--|
|-7--11--9--9--|
|-5---9--9--7--|
|--------7-----|

|-5-55-55---------7-77-77----------|
|-5-55-55-9-99-99-7-77-77-7-77-77--|
|-6-66-66-9-99-99-7-77-77-7-77-77--|
|-7-77-77-9-99-99-9-99-99-7-77-77--| x4
|-7-77-77-7-77-77-9-99-99-5-55-55--|
|-5-55-55---------7-77-77----------|

|----------------0--00--0---|
|-2-22-3-32--32--0--00--0---|
|-2-22-2-22--22--1--11--1---|
|-2-22-2-22--22--2--22--2---| x4
|-0-00-0-00--00--2--22--2---|
|----------------0--00--0---|

 Guitar 1st line
|-0--000-000-00-|
|-0--000-000-00-|
|-1--111-111-11-|
|-2--222-222-22-| x4
|-2--222-222-22-|
|-0--000-000-00-|
 Guitar 2nd line (solo)
|------------------------------------|
|-9-10-12--12-9-10--10----9----------|
|----------------------11---11-1010--|
|------------------------------------|
|------------------------------------|
|------------------------------------|

|----------------------------------------|
|-9-10-12--12-9-10--10-9--15b1717171717--|
|----------------------------------------|
|----------------------------------------|
|----------------------------------------|
|----------------------------------------|

 Guitar 1st line
|-5-55-55---------7-77-77----------|
|-5-55-55-9-99-99-7-77-77-7-77-77--|
|-6-66-66-9-99-99-7-77-77-7-77-77--|
|-7-77-77-9-99-99-9-99-99-7-77-77--| x4
|-7-77-77-7-77-77-9-99-99-5-55-55--|
|-5-55-55---------7-77-77----------|

 Guitar 2nd line(solo)
|-------------------------------------------|
|-------------------------------------------|
|-4-6--6-4--4-4--6-6-4--4-4--4--4-----------|
|---------------------------------7--4-7-7--|
|-------------------------------------------|
|-------------------------------------------|

|--------------------------------------------------------|
|--------------------------------------------------------|
|-4-6--6-4--4-4--6-6-4--4-4--4--4--------4---------------|
|---------------------------------7--4-7---7-4------7----|
|-----------------------------------------------7h9------|
|--------------------------------------------------------|
 (Chorus)
|-5-55-55---------7-77-77----------|
|-5-55-55-9-99-99-7-77-77-7-77-77--|
|-6-66-66-9-99-99-7-77-77-7-77-77--|
|-7-77-77-9-99-99-9-99-99-7-77-77--|
|-7-77-77-7-77-77-9-99-99-5-55-55--|
|-5-55-55---------7-77-77----------|

“Out of Control”
Verse.
e|--------------------------------------------------------------------|
B|--------------------------------------------------------------------|
G|-555--------6666----------------------------------------------------|
D|-555-333-66-6666----------------------------------------------------|
A|-333-333-66-4444----------------------------------------------------|
E|-----111-44---------------------------------------------------------|
   DDU DDU DD UUDU
That part  ^^^^ is for the intro after the bass, for the verse i'm pretty sure
its palm muted. It switches though, you should be able to tell.

Middle of verse.
e---------------------------------------------------------------------|
B---------------------------------------------------------------------|
G--6-5-5-5--4-4-4-----------------------------------------------------|
D--6-5-5-5--4-4-4-5---------------------------------------------------|
A--4-3-3-3--2-2-2-5---------------------------------------------------|
E-----------------3---------------------------------------------------|

Chorus
e---------------------------------------------------------------------|
B---------------------------------------------------------------------|
G----------5----------------------------------------------------------|
D---7--6---5--6--5----------------------------------------------------|
A---7--6---3--6--5----------------------------------------------------|
E---5--4------4--3----------------------------------------------------|

“Django”
INTRO - work out strummings etc. yourself
E :-----------------------------------------------------------------|
B :-----------------------------------------------------------------|
G :-------------6666---6---6---5555---5---5---6666---6---6----------|
D :-----6---6--------6---6---6------6---6---6------6---6------------|
A :-4-7---7---7---------------------------------------------7-------|
E :-----------------------------------------------------------------|

VERSE - heavy palm muting and up and down picking
E :---------------------------------------------------------------------|
B :---------------------------------------------------------------------|
G :-6-6-6-6-6-6-6-6--6-6-6-6-6-6-6-6-------------------6-6-6-6-6-6-6-6--|
D :-6-6-6-6-6-6-6-6--6-6-6-6-6-6-6-6--6-6-6-6-6-6-6-6--6-6-6-6-6-6-6-6--|
A :-4-4-4-4-4-4-4-4--4-4-4-4-4-4-4-4--6-6-6-6-6-6-6-6--4-4-4-4-4-4-4-4--|
E :-----------------------------------4-4-4-4-4-4-4-4-------------------|

CHORUS
E :-----------------------------------|
B :-----------------------------------|
G :-----------------------------------|
D :-4-4-4-4-4-4-4-4--6-6-6-6-6-6-6-6--|
A :-4-4-4-4-4-4-4-4--6-6-6-6-6-6-6-6--|
E :-1-1-1-1-1-1-1-1--4-4-4-4-4-4-4-4--|

SOLO - something like this (just improvise)
E :---------------------------------|
B :-7-5-7-5-7-5-5-7^----------------|
G :-7-5-7-5-7-5-5-7^----------------|
D :---------------------------------|
A :---------------------------------|
E :---------------------------------|

“Arrested In Shanghi”
Lead
E|---5---4---2--2-2-4-2~-|
B|-----------------------|
G|-----------------------|
D|-----------------------|
A|-----------------------|
E|-----------------------|

The Xylaphone part (can't spell)
E|-----5-----4--2-0-2-4-2-(0)-|
B|---5-----5------------------|
G|-6-----4--------------------|
D|----------------------------|
A|----------------------------|
E|----------------------------|

Chorus
E|----------------------------|
B|----------------------------|
G|-9999--6666---4-4-4-4-4-4-4-|
D|-9999--6666---4-4-4-4-4-4-4-|
A|-7777--4444---2-2-2-2-2-2-2-|
E|----------------------------|

Bridge (Distortion)
E|-5--4---2-2--4-|
B|-5--5---2-2--5-|
G|-6--4---4-4--4-|
D|---------------|
A|---------------|
E|---------------|

“Travis Bickle”
Intro:
e|-------------------------------|
B|-------------------------------|
G|-7-6-----4-------4~------------|
D|-7-6---4---4---4---------------|
A|-5-4-2-------2-----------------|
E|-------------------------------|

e|-------------------------------|
B|-------------------------------|
G|-7-6-----4-------4~------------|
D|-7-6---4---4---4---------------|
A|-5-4-2-------2-----------------|
E|-------------------------------|
                   ^On last note on second time,
                   flip the toggle switch back and
                   forth real fast for the pausing
                   sound.

Pre-Verse:
e|---------------------------|
B|---------------------------|
G|-4-44----------------------|  x4  Last time, end the
D|-4-44--4-44--555555--------|      last note short
A|-2-22--4-44--555555--------|
E|-------2-22--333333--------|
  |........pm.........|


Verse:
e|------------------------------------|
B|------------------------------------|
G|-44444444---------------------------| x4
D|-44444444--44444444--555555555555---|
A|-22222222--44444444--555555555555---|
E|-----------22222222--333333333333---|
  |.............pm.................|

Chorus:
e|-2-22-22-22-2---2-22-22-22-2---3-33-33-33---5-55---5-55--|
B|-3-33-33-33-3---2-22-22-22-2---3-33-33-33---7-77---5-55--|
G|-4-44-44-44-4---3-33-33-33-3---4-44-44-44---7-77---5-55--| x2
D|-4-44-44-44-4---4-44-44-44-4---5-55-55-55---7-77---7-77--|
A|-2-22-22-22-2---4-44-44-44-4---5-55-55-55---5-55---7-77--|
E|----------------2-22-22-22-2---3-33-33-33----------5-55--|

Bridge:
e|------------------------------------------------------|
B|------------------------------------------------------|
G|-77777777777---------------77777777777----------------|
D|-77777777777-6666666666666-77777777777-444444444444---|
A|-55555555555-6666666666666-55555555555-444444444444---|
E|-------------4444444444444-------------222222222222---|

e|------------------------------------------------------|
B|------------------------------------------------------|
G|-7777777777-------------------------------------------|
D|-7777777777-6666666666666-77777777777777777777777777--|
A|-5555555555-6666666666666-77777777777777777777777777--|
E|------------4444444444444-55555555555555555555555555--|


Solo:
e|------------------------5b-5b5b5b-5b5b---|
B|-3-3-3-333--5-3-5b-3-5-------------------|
G|-----------------------------------------|
D|-----------------------------------------|
A|-----------------------------------------|
E|-----------------------------------------|

“Memphis”

|---3-3--1-0----0--------3----3-----|
|-3-3-3------3----0---3/5--3/5-3/5--|
|---4-4---------------0----0---0----|
|---5-5-----------------------------|
|-----------------------------------|
|-----------------------------------|
 Riff A
|-----------------------------------|
|-----------------------------------|
|--5--5---5--5-----5--5---5--5------|
|--5--5---5--5--5--5--5---5--5--5---|  x2
|--3--3---3--3--5--3--3---3--3--5---|
|---------------3---------------3---|


|--3-----5----|
|--5-----6----|
|--5-----5----|  x4
|--5-----5----|
|-------------|
|-------------|


 Guitar 1st line
|-3-33-3-4-44-4-1-11-1-3-33-3-5-55-5-3-33-3-33333333--|
|-5-55-5-5-55-5-1-11-1-5-55-5-5-55-5-3-33-3-33333333--|
|-5-55-5-4-44-4-2-22-2-5-55-5-5-55-5-4-44-4-44444444--|
|-5-55-5--------3-33-3-5-55-5-7-77-7-5-55-5-55555555--|
|-----------------------------------------------------|
|-----------------------------------------------------|
 Guitar 2nd line
|------------------------------------------------------------------|
|------------------------------------------------------------------|
|-------------9999----10101010------------------------55555555-----|
|-10101010----9999-x2-10101010-x2-10101010----7777----55555555-x2--|
|-10101010-x2-7777-----8-8-8-8----10101010-x2-7777-x2-33333333-----|
|--8-8-8-8-------------------------8-8-8-8----5555-----------------|

 play verse again and chorus then play Riff A

|-------------------------------------------|
|-------------------------------------------|
|-------------------------5555----5555------|
|-3333----2222----5555----5555-x2-5555-x2---| x2
|-3333-x4-2222-x4-5555-x4-3333----2222------|
|-1111----0000----3333----------------------|

|--------------------------------------------|
|--------------------------------------------|
|-----------------------333/55555555555553---|
|---------------------55------------------5--|
|-2/3332/3332/3332/333-----------------------|
|--------------------------------------------|

|------------------------------------------------|
|------------------------------------------------|
|-----------------------333/55555555555553-3-----|
|---------------------55------------------5-543--|
|-2/3332/3332/3332/333---------------------------|
|------------------------------------------------|

 Play verse
 Play chorus
 Play riff A

|----------|
|----------|
|-5-4-5----|
|-5-4-5----|
|-3-2-3----|
|----------|

“Spirit of ‘87”

|-----------------------|
|-----------------------|
|------7777-------------|
|-4444-7777-9999-7777---|
|-4444-5555-9999-7777---|
|-2222------7777-5555---|

|---------|
|---------|
|-6---4---|
|-6---4---|
|-4---2---|
|---------|

|------------------------------|
|------------------------------|
|-------7----------------7-----|
|-4-----7-x16-9-----7----7-x8--|
|-4-x16-5-----9-x16-7-x8-5-----|
|-2-----------7-----5----------|
(play P.M but open at first chord)

“Ghost Band”
Chorus (Both Guitars)
e|--------------------------------------------------------------------------|
B|--------------------------------------------------------------------------|
G|-8-8-8-8-8-8-8-8---------8-8-8-8----------------------------------8-8-8-8-|
D|-8-8-8-8-8-8-8-8-6-6-6-6-8-8-8-8--10-10-10-10-10-10-10-10-8-8-8-8-8-8-8-8-|
A|-6-6-6-6-6-6-6-6-6-6-6-6-6-6-6-6--10-10-10-10-10-10-10-10-8-8-8-8-6-6-6-6-|
E|-----------------4-4-4-4----------8--8--8--8--8--8--8--8--6-6-6-6---------|

Verse  (Both Guitars)
e|--------------------------------------------------------------------|
B|--------------------------------------------------------------------|
G|--------------------------------------------------------------------|
D|------------------------8-8-8-8-8-8-8-8-8-8-8-----------------------|
A|-6-6-6-6-6-6-6-6-6-6-6--6-6-6-6-6-6-6-6-6-6-6-----------------------|
E|-4-4-4-4-4-4-4-4-4-4-4----------------------------------------------|
   . . . . . . . . . . .  . . . . . . . . . . .

Pre-Chorus (Both Guitars)
e|--------------------------------------------------------------------|
B|--------------------------------------------------------------------|
G|--------------8----------------------8------------------------------|
D|-5-5-5-5-5-5--8--8-8-8--5-5-5-5-5-5--8--8-8-8-----------------------|
A|-5-5-5-5-5-5--6--8-8-8--5-5-5-5-5-5--6--8-8-8-----------------------|
E|-3-3-3-3-3-3-----6-6-6--3-3-3-3-3-3-----6-6-6-----------------------|

Interlude  (Guitar 2)
e|---------------------------------------------------------------------------|
B|---------------------------------------------------------------------------|
G|---------------------------------------------------------------------------|
D|---------------------------------------------------------------------------|
A|-1-1-1-1-1-3-3-3-3-3-----------6-5-3--1-1-1-1-1-3-3-3-3-3------------6-5-3-|
E|---------------------3-3-3-3-3-----------------------------3-3-3-3-3-------|
   . . . . . . . . . . . . . . . . . .  . . . . . . . . . . . . . . .  . . .

Solo  (Guitar 1)
e|-----------------------------------------------------------------|
B|-----------------------------------------------------------------|
G|-6^-6^-6^-6^-6^-6^-6^-6^-6^-6^--8-7-5----------------------------|
D|--------------------------------------8^-8-10-12-10-8----8-10-8^-|
A|------------------------------------------------------10---------|
E|-----------------------------------------------------------------|

Con't
e|-----------------------------------------------------------------|
B|-----------------------------------------------------------------|
G|--------------------------------------------7--------------------|
D|----------------------------------------5-8----------------------|
A|-8-7-8-7-8-8-10-10-10-8-7-8--7-8-8--5-8--------------------------|
E|-----------------------------------------------------------------|

“Tropical London”

|--------3--3--6------------|
|--------3--4--6------------|
|--------3--5--7--8888875---|
|--------5--5--8---------8--| x 2
|--------5--3--8------------|
|-6-5-3--3-----6------------|

|---------------------------------------|
|---------------------------------------|
|-------------------88888888------------|
|-88888888-55555555-88888888-88888888---| x 2
|-88888888-55555555-66666666-88888888---|
|-66666666-33333333----------66666666---|
pm........ ........ ........ ........
 Riff A
|--------------|
|--------------|
|--------8-----|
|--5--5--8-----| x3
|--5--5--6-----|
|--3--3--------|
 Riff B
|----------------------|
|----------------------|
|--33333333------------|
|--33333333-33333333---|
|--11111111-33333333---|
|-----------11111111---|
   ........ ........
  +

 [ + ] x2


|--------3--3--6------------|
|--------3--4--6------------|
|--------3--5--7--8888875---|
|--------5--5--8---------8--| x 2
|--------5--3--8------------|
|-6-5-3--3-----6------------|

|-----------------------------------------------------------|
|-----------------------------------------------------------|
|-----------------------------------------------------------|
|-----------------8888-55-------8888-55---------------------|
|-------5-8888-88---------8888----------8888-55-------------|
|-6666-8----------------------------------------888886656---|

|------------------------------|
|------------------------------|
|----5--8----------5--8--------|
|-5--5--8--8-8--5--5--8--8-3---|
|-5--3--6--8-8--5--3--6--8-3---|
|-3--------6-5--3--------6-1---|

|---------------------------------|
|---------------------------------|
|---------------------------------|
|---------------------------------|
|-/5555-5\333-3\111---1-3-5--3-1--|
|-------------------3-------------|

|-1-3131-----------------|
|-3-3333-1-3-------------|
|-0-0000-----0-3-33-0-3--|
|------------------------|
|------------------------|
|------------------------|

  x2

|-------------------|
|-------------------|
|-8-88888-----------|
|-8-88888-8-88888---| x 4
|-6-66666-8-88888---|
|---------6-66666---|
    .....   .....
|-------------------|
|-------------------|
|-8888888-----------|
|-8888888-8888888---| x 3
|-6666666-8888888---|
|---------6666666---|

|----------------|
|----------------|
|-8888888--------|
|-8888888-8888---|
|-6666666-8888---|
|---------6666---|


“Roadblock”
INTRO
E :------------------------------------------------------------------|
B :------------------------------------------------------------------|
G :-7-7-7-7--10--12--7-7-7-7--10--12--7-7-7-7--10--12---7------------|
D :-7-7-7-7--10--12--7-7-7-7--10--12--7-7-7-7--10--12---7---3--5-----|
A :-5-5-5-5--8---10--5-5-5-5--8---10--5-5-5-5--8---10---5---3--5-----|
E :---------------------------------------------------------1--3-----|

VERSE - heavy palm muting
E :--------------------------------------|
B :--------------------------------------|
G :-7-7-7-7------------------------------|
D :-7-7-7-7--3-3--5-5--------------------|
A :-5-5-5-5--3-3--5-5--------------------|
E :----------1-1--3-3--------------------|

CHORUS - string all these together for 1 Chorus
E :------------------------------------|
B :------------------------------------|
G :-3-3-3-3-----------7-7-7-7-7-7-7-7--|
D :-3-3-3-3--5-5-5-5--7-7-7-7-7-7-7-7--|      X2
A :-1-1-1-1--5-5-5-5--5-5-5-5-5-5-5-5--|
E :----------3-3-3-3-------------------|

E :-------------------|
B :-------------------|
G :-3-3-3-3-----------|
D :-3-3-3-3--5-5-5-5--|      X2
A :-1-1-1-1--5-5-5-5--|
E :----------3-3-3-3--|

E :---------------------------------------|
B :---------------------------------------|
G :-3-3-3-3-3-3-3-3--3-3-3-3-3-3-3-3--2~--|
D :-3-3-3-3-3-3-3-3--3-3-3-3-3-3-3-3--2~--|      X1
A :-1-1-1-1-1-1-1-1--1-1-1-1-1-1-1-1--0~--|
E :---------------------------------------|

“Born Frustrated”
E:------------------| Play that 12 times with the first 4 in weird, muddy distortion
B:------------------| before the singing comes in, the second 4 times with normal
G:------------------| distortion when "Is it you..." comes in, and play the last 4
D:--------99999999--| when the "hey, hey, hey...is it you?" comes in
A:--99-44-77777777--|
E:--77-22-----------|

VERSE: X 2
E:------------------------------------|
B:------------------------------------|
G:------------------------------------|
D:---------9-X16---------9-X8--11-X8--|
A:--6-X16--7------6-X16--7------9-----|
E:--4-------------4-------------------|

Then play the beginning segment without the first 4 times, and then the verse.
Do that several times, im not sure how many. Then play...

Heres a little thingy to play during the bass fills...
E:----------------------------------------------------------------------------|
B:----------------------------------------------------------------------------|
G:----------------------------------------------------------------------------|
D:---------------------------------------------9~-----------------------------|
A:--9~-----------------------4~----------------7~-----------------------------|
E:--7~-----------------------2~-----------------------------------------------|
    *hold through bass fill  * hold this too   *hold this longer
                                                cuz the bass fill is longer

E:------------------|
B:------------------| Play this 4 times fairly soft with just singing and a drum beat
G:------------------|
D:--------99999999--|
A:--99-44-77777777--|
E:--77-22-----------|

Then play...

E:-------------|
B:-------------|
G:-------------|
D:------9~-----|
A:--9-4-7~--9--|
E:--7-2-----7--|
            *LIKE THE SWARMING VULTURES!!!

*=end abruptly

Play that twice but last bit twice but on the second time i think you
play the 7-9 powerchord on the 6th and 5th dtrings more than once
and theres a pick scrape on second guitar. Then play the beginning segment
a few more times, then play...

E:-------------------------------------------------------------------------|
B:-------------------------------------------------------------------------|
G:-------------------------------------------------------------------------|
D:-------------------------------------------------------------------------|
A:------9~---------4~-------------------2-222222222222222222222222222~--9--|
E:------7~---------2~-------------------0-000000000000000000000000000~--7--|
  Is it you...whos born...frustrateeeeeeedddddddddddddd

“Back Up Against the Wall”
Verse/Intro

e----------------------------------------|
B----------------------------------------|
G----------------------------9-9-9-9-8-8-|
D9-9-9-9-9-9-9-9--9-9-9-9-9--7-7-7-7-6-6-|
A7-7-7-7-7-7-7-7--6-6-6-6-6--------------|
E----------------------------------------|
 . . . . .   . .  . . . . .  . . . . . .

Chorous

B, A, E X2
A, E X2
End On B

Bridge X2

e------------------------|
B--------9--10101010-9-9-|
G9---9---8---9-9-9-9-8-8-|
D9---9---6---7-7-7-7-6-6-|
A7---7-------------------|
E------------------------|

Verse

Chorous

Bridge

Break Pm...

C#, B, E

Solo

e--------------------------------------------------------------------|
B--------------------------------------------------------------------|
G-6b8-4-6p4-6b7-6b7-6b7p4-6b8-4b6-6p4-6b-6b-6b-6p4-6b7-6b7-6p4-6-6b8-|
D--------------------------------------------------------------------|
A--------------------------------------------------------------------|
E--------------------------------------------------------------------|

Chords Under Solo X2

G#, B, E B
G#, E, B

Verse

Chourus

Bridge

Verse Fades Out

“Ivory Coast”
INTRO - the 799 chord is where Tim shouts 'GO!!'
E :-------------------------|
B :-------------------------|
G :-7-7-7-7-7--9------------|
D :-7-7-7-7-7--9------------|     [X4]
A :-5-5-5-5-5--7------------|
E :-------------------------|

VERSE
E :-----------------------------------------------------------------------|
B :-----------------------------------------------------------------------|
G :------------------5-5-5-5----------------------------9-9-9-9-9-9-9-9---|
D :-5-5-5-5-5-5-5-5--5-5-5-5--5-5-5-5--5-5-5-5-5-5-5-5--9-9-9-9-9-9-9-9---|
A :-5-5-5-5-5-5-5-5--3-3-3-3--5-5-5-5--5-5-5-5-5-5-5-5--7-7-7-7-7-7-7-7---|
E :-3-3-3-3-3-3-3-3-----------3-3-3-3--3-3-3-3-3-3-3-3--------------------|

PRE-CHORUS
E :--------------------------------------|
B :--------------------------------------|
G :-7-7-7-7-7-7-7-7--5-5-5-5-------------|
D :-7-7-7-7-7-7-7-7--5-5-5-5--5-5-5-5----|      [X3]
A :-5-5-5-5-5-5-5-5--3-3-3-3--5-5-5-5----|
E :---------------------------3-3-3-3----|

PRE-PRE-CHORUS - play un muted
E :--------------------------------|
B :--------------------------------|
G :-7~---------------5~------------|
D :-7~---------------5~------------|
A :-5~---------------3~------------|
E :--------------------------------|

CHORUS
E :----------------------------------------------------------------------|
B :----------------------------------------------------------------------|
G :-----------------------------------5-5-5-5-5-5-5-5--5-5-5-5-5-5-5-5---|
D :-5-5-5-5-5-5-5-5--5-5-5-5-5-5-5-5--5-5-5-5-5-5-5-5--5-5-5-5-5-5-5-5---|
A :-5-5-5-5-5-5-5-5--5-5-5-5-5-5-5-5--3-3-3-3-3-3-3-3--3-3-3-3-3-3-3-3---|
E :-3-3-3-3-3-3-3-3--3-3-3-3-3-3-3-3-------------------------------------|

“Stand Your Ground”
NOT DONE

“Other Side”
INTRO - the 799 chord is where Tim shouts 'GO!!'
E :-------------------------|
B :-------------------------|
G :-7-7-7-7-7--9------------|
D :-7-7-7-7-7--9------------|     [X4]
A :-5-5-5-5-5--7------------|
E :-------------------------|

VERSE
E :-----------------------------------------------------------------------|
B :-----------------------------------------------------------------------|
G :------------------5-5-5-5----------------------------9-9-9-9-9-9-9-9---|
D :-5-5-5-5-5-5-5-5--5-5-5-5--5-5-5-5--5-5-5-5-5-5-5-5--9-9-9-9-9-9-9-9---|
A :-5-5-5-5-5-5-5-5--3-3-3-3--5-5-5-5--5-5-5-5-5-5-5-5--7-7-7-7-7-7-7-7---|
E :-3-3-3-3-3-3-3-3-----------3-3-3-3--3-3-3-3-3-3-3-3--------------------|

PRE-CHORUS
E :--------------------------------------|
B :--------------------------------------|
G :-7-7-7-7-7-7-7-7--5-5-5-5-------------|
D :-7-7-7-7-7-7-7-7--5-5-5-5--5-5-5-5----|      [X3]
A :-5-5-5-5-5-5-5-5--3-3-3-3--5-5-5-5----|
E :---------------------------3-3-3-3----|

PRE-PRE-CHORUS - play un muted
E :--------------------------------|
B :--------------------------------|
G :-7~---------------5~------------|
D :-7~---------------5~------------|
A :-5~---------------3~------------|
E :--------------------------------|

CHORUS
E :----------------------------------------------------------------------|
B :----------------------------------------------------------------------|
G :-----------------------------------5-5-5-5-5-5-5-5--5-5-5-5-5-5-5-5---|
D :-5-5-5-5-5-5-5-5--5-5-5-5-5-5-5-5--5-5-5-5-5-5-5-5--5-5-5-5-5-5-5-5---|
A :-5-5-5-5-5-5-5-5--5-5-5-5-5-5-5-5--3-3-3-3-3-3-3-3--3-3-3-3-3-3-3-3---|
E :-3-3-3-3-3-3-3-3--3-3-3-3-3-3-3-3-------------------------------------|
Tap to rate this tab
 
# A B C D E F G H I J K L M N O P Q R S T U V W X Y Z