Song name
# A B C D E F G H I J K L M N O P Q R S T U V W X Y Z

Rancid - Corruption tab

intro/outro

E---------------|x2
H---------------|
G---------------|
D-7-7-7---------|
A-5-5-5-6-5-4-3-|
E-------4-3-2-1-|

verse

E---------------------------|x4
H---------------------------|
G---------------------------|
D-------3-3-----------------|
A-7-7-7-1-1-5-5-5-5-5-6-6-6-|
E-5-5-5-----3-3-------------|

interlude

E------------------------------|x2
H------------------------------|
G------------------------------|
D-7-7-7-11-9-10-10-10-10-10-10-|
A-5-5-5-9- 7-8--8--8--8--8--8--|
E------------------------------|

interlude2

E---------------------------------------------------------|x2
H---------------------------------------------------------|
G---------------------------------------------------------|
D-7-7-7-7-7-7-8-8-9-9-10-10-10-10-10-10-10-10-10-10-10-10-|
A-5-5-5-5-5-5-6-6-7-7-8--8--8--8--8--8--8--8--8--8--8--8--|
E---------------------------------------------------------|

order:
intro
verse
interlude
verse
interlude2
verse
outro
interlude
interlude2
Tap to rate this tab
# A B C D E F G H I J K L M N O P Q R S T U V W X Y Z