Song name
# A B C D E F G H I J K L M N O P Q R S T U V W X Y Z

Rancid - Outta My Mind tab

----------------------------------------------------------------------------
		        Outa My Mind - Rancid
----------------------------------------------------------------------------
Tabbed by:matt dale
Email:mattxdale@aim.com

Tuning:standard

intro/chorus/verse-second guitar-repeated through whole song
e|----------------------------------||
B|----------------------------------||
G|--5-5-5-5-----------------5-5-5-5-||
D|--5-5-5-5-3-3-3-3-3-3-3-3-5-5-5-5-||
A|--3-3-3-3-3-3-3-3-3-3-3-3-3-3-3-3-||
E|----------1-1-1-1-1-1-1-1---------||



| /  slide up
| \  slide down
| h  hammer-on
| p  pull-off
| ~  vibrato
| +  harmonic
| x  Mute note
============================================================================
Tap to rate this tab
# A B C D E F G H I J K L M N O P Q R S T U V W X Y Z