Song name
# A B C D E F G H I J K L M N O P Q R S T U V W X Y Z

Rancid - Cash Culture And Violence tab

RANCID
LIFE WON'T WAIT 1998
CASH, CULTURE AND VIOLENCE

Intro:
     F*****     BbF
e|-------------------|
B|-------------------|
G|--------------3----|
D|---3-xxxxx----3-3--|
A|---3-xxxxx----1-3--|
E|---1-xxxxx------1--| You dont hav to play 2 times 133 (F5) cuz the end is also 
of next part its like F BF BF BF

Verse
     F    Bb   F    Bb       F    Bb
e|-----------|-----------|-----------|-----|
B|-----------|-----------|-----------|-----|
G|--------3--|--------3--|--------3--|-----|
D|---3----3--|---3----3--|---3----3--|--3--|
A|---3----1--|---3----1--|---3----1--|--1--|
E|---1-------|---1-------|---1-------|--1--|

    SOLO

E|---------------------------------------------------------------------|
B|----------10---------------10-----------------------------10---------|
G|--12--12-----12-10-12--12-----12-10--9--9--9-10-12--12--------12-10--|
D|---------------------------------------------------------------------|
A|---------------------------------------------------------------------|
E|---------------------------------------------------------------------|


Chorus
e|------------|
B|------------|
G|---------3--|
D|---3--5--3--|
A|---3--5--1--|
E|---1--3-----|
     F  G  Bb
Tap to rate this tab
# A B C D E F G H I J K L M N O P Q R S T U V W X Y Z