Guitaretab - guitar tabs
Song name
# A B C D E F G H I J K L M N O P Q R S T U V W X Y Z

Rancid - Junkie Man tab

-------------------------------------------------------------------------------
			     Junkie Man - Rancid
-------------------------------------------------------------------------------

Intro:

e|-----4-------4-------4-------4--------4--------4--------4-------4------|
B|---4---4---4---4---4---4---4---4----4---4---4----4---4---4---4---4-----|
G|-6-------6-------6-------6--------7-------7--------7-------7-----------|
D|-----------------------------------------------------------------------|
A|-----------------------------------------------------------------------|
E|-----------------------------------------------------------------------|
[ Tab from: http://www.guitaretab.com/r/rancid/83427.html ]
Verse:
Figure out when and when not to palm mute
e|---------------------------------------------------------------|
B|---------------------------------------------------------------|
G|-----------------7---------------------------------------------|
D|-7---------------7---------------------------------------------|
A|-7-(x16)----------5-(x16)--------------------------------------|
E|-5-------------------------------------------------------------|

Chorus:

e|----------------------------------------------------------------|
B|----------------------------------------------------------------|
G|-------7-------------7-----------7-----9------------------------|
D|-4-----7-(x8)--4-----7-(x8)-4-----7-(x8)-9-(x16)----------------|
A|-4-(x8)-5------4-(x8)-5-----4-(x8)-5-----7----------------------|
E|-2-------------2-----------2------------------------------------|

thats all the parts of the song, its so easy you can figure out the order yourself.
Related for Junkie Man tab
Advertisement will be closed in 10 seconds