Song name
# A B C D E F G H I J K L M N O P Q R S T U V W X Y Z

Rancid - Ggf tab

-----------------------------------------------------------------------------
			     GGF - Rancid                                  
-------------------------------------------------------------------------------
Tabbed by: Daniel FItzpatrick
Email:Fitzdd2@AOL.com

Tuning:Standard

Chorus x1
e|-------------------------------------------------------------------------|
B|-------------------------------------------------------------------------|
G|----5~-----777777777777777-----------------------------------------------|
D|-5~-3~-5~--555555555555555-----------------------------------------------|
A|-5~-3~-5~--555555555555555-----------------------------------------------|
E|-3~----3~----------------------------------------------------------------|
             xxxxxxxxxxxxxxx
Verse x1
e|-------------------------------------------------------------------------|
B|-------------------------------------------------------------------------|
G|-555555--------777777----------------77777777777777777777----------------|
D|-333333-555555-777777--555555-(x3)---77777777777777777777-(etc)----------|
A|-333333-333333-555555--333333--------55555555555555555555----------------|
E|--------333333---------333333--------------------------------------------|
   xxxxxx xxxxxx xxxxxx  xxxxxx

Chorus x1
Verse x1
Chorus x1 
                      0 
1st Solo     play the 5`s fast 3
e|-------------------------------------------------------------------------|
B|-------------5-3~--------------------------------------------------------|
G|-0000000000000000004-5~5555555-(x3)--000045400000~-----------------------|
D|-55555555555555555555555555555-------555555555555~-----------------------|
A|-------------------------------------------------------------------------|
E|-------------------------------------------------------------------------|
            on the 3rd time play this above ^ for the last part
 Bridge
e|-555555777777555555777777555555777777555555------------------------------|
B|-888888888888888888888888888888888888888888------------------------------|
G|-000000000000000000000000000000000000000000------------------------------|
D|-------------------------------------------------------------------------|
A|-------------------------------------------------------------------------|
E|-------------------------------------------------------------------------|

e|-------------------------------------------------------------------------|
B|-88888810101010101012810888888881010101010101281088----------------------|
G|-00000000000000000000000000000000000000000000000000----------------------|
D|-------------------------------------------------------------------------|
A|-------------------------------------------------------------------------|
E|-------------------------------------------------------------------------|

e|-0000003333333333-------------000000333333333----------------------------|
B|-55555533333h5333000000000000-5555553333h5333----------------------------|
G|-----------------555555444444----------------555554----------------------|
D|----------------------------------------------------55555--(x2)----------|
A|-------------------------------------------------------------------------|
E|-------------------------------------------------------------------------|

e|-------------------------------------------------------------------------|
B|-88888101010101012101010810888888881010101010121010108888----------------|
G|-00000000000000000000000000000000000000000000000000000000----------------|
D|-------------------------------------------------------------------------|
A|-------------------------------------------------------------------------|
E|-------------------------------------------------------------------------|

e|-------------------------------------------------------------------------|
B|-12101088121010881210108812101088888888101010101053----------------------|
G|-00000000000000000000000000000000000000000000000000540-------------------|
D|---------------------------------------------------005-------------------|
A|-------------------------------------------------------------------------|
E|-------------------------------------------------------------------------|

e|-0000003333333333-------------000000333333333----------------------------|
B|-55555533333h5333000000000000-5555553333h5333----------------------------|
G|-----------------555555444444----------------555554----------------------|
D|----------------------------------------------------55555--(x2)----------|
A|-------------------------------------------------------------------------|
E|-------------------------------------------------------------------------|

e|-0000003333333333--------------------------------------------------------|
B|-55555533333h53330000000000008888888810101010101281088-------------------|
G|-----------------5555554444440000000000000000000000000-------------------|
D|-------------------------------------------------------------------------|
A|-------------------------------------------------------------------------|
E|-------------------------------------------------------------------------|

e|-------------------------------------------------------------------------|
B|-1210108812101088121010881210108855555333333-----------------------------|
G|-0000000000000000000000000000000000000000000555540-----------------------|
D|--------------------------------------------000005-----------------------|
A|-------------------------------------------------------------------------|
E|-------------------------------------------------------------------------|

e|-------------------------------------------------------------------------|
B|-555553333h53--------33333--------33333----------------------------------|
G|-0000000000005555400-000005000000-000005000000---------------------------|
D|------------0000055-------555555-------555555----------------------------|
A|-------------------------------------------------------------------------|
E|-------------------------------------------------------------------------|

e|-------------------------------------------------------------------------|
B|-888888888888888888121010881210108812101088121010888-(x2)----------------|
G|-000000000000000000000000000000000000000000000000000---------------------|
D|-------------------------------------------------------------------------|
A|-------------------------------------------------------------------------|
E|-------------------------------------------------------------------------|
               only repeat the part starting with 12 not the 8`s again

e|-------------------------------------------------------------------------|
B|-555553333h53--------555553333h53--------555553333h53--------------------|
G|-0000000000005555400-0000000000005555400-0000000000005555400-------------|
D|-------------0000055-------------0000055-------------0000055-------------|
A|-------------------------------------------------------------------------|
E|-------------------------------------------------------------------------|

Chorus x1

Solo  constantly stroke up and down fast
e|-------------------------------------------------------------------------|
B|-15151513131312121215151513131312121210h1288--(x2)-----------------------|
G|-0000000000000000000000000000000000000000000-----------------------------|
D|-------------------------------------------------------------------------|
A|-------------------------------------------------------------------------|
E|-------------------------------------------------------------------------|

e|-------------------------------------------------------------------------|
B|-171817171717178171717171715h17p151312-----------------------------------|
G|-0000000000000000000000000000000000000-----------------------------------|
D|-------------------------------------------------------------------------|
A|-------------------------------------------------------------------------|
E|-------------------------------------------------------------------------|

e|-------------------------------------------------------------------------|
B|-171817171717178171717171712h13p151312---13~--12~--15~--8888888888-------|
G|-0000000000000000000000000000000000000----0~---0~---0~--0000000000-------|
D|-------------------------------------------------------------------------|
A|-------------------------------------------------------------------------|
E|-------------------------------------------------------------------------|

/  slide up
| \  slide down
| h  hammer-on
| p  pull-off
| ~  vibrato
| +  harmonic
| x  Mute note
===============================================================================
Tap to rate this tab
 
# A B C D E F G H I J K L M N O P Q R S T U V W X Y Z