Song name
# A B C D E F G H I J K L M N O P Q R S T U V W X Y Z

Rancid - Rats In The Hallway tab

Help us improve GuitareTab! Take a short survey!
Another great song by RANCID. im not sure if they have an album with a non-accoustic 
but thats what i got from my DVD. here it is.

Verse:
"Knock, knock. Come in..."
"Outside my gate..."
"Johnny bought some shit..."
e|-----------------|------------------|
B|-----------------|------------------|
G|-2---------------|------------------|
D|-0--4--x-x-x-x-4-|------------------|x8 *7x 2nd verse*
A|-0--5--x-x-x-x-5-|-5--x-x-x-x-5-x-x-|   *14x 3rd verse*
E|-----------------|-3----------3-x-x-|

last measure of 2nd verse:
e|----------|
B|----------|
G|----------|
D|-4--4-----|
A|-5----5-5-|
E|--------3-|

last 4 measures of 3rd verse: each chord lasts 1
e|---------|
B|---------|
G|---------|
D|-7-------|x2
A|-5---5---|
E|-----3---|


Chorus: "Junkie, Drunken, Bum..."
e|-----------------|-----------------|-----------------|
B|-----------------|-----------------|-----------------|
G|-----------------|-----------------|-----------------|
D|-5-5-5-5-5-5-5-5-|-----------------|-7-7-7-7-7-7-7-7-|
A|-3-3-3-3-3-3-3-3-|-5-5-5-5-5-5-5-5-|-5-5-5-5-5-5-5-5-|
E|-----------------|-3-3-3-3-3-3-3-3-|-----------------|

Brige:
"Zombie walkin' kid..." or sumthin like that
e|-----------------|
B|-----------------|
G|-----------------|
D|-----------------|x10 then do verse 3
A|-4-4-4-4-4-4-4-4-|
E|-5-5-5-5-5-5-5-5-|

Last 4 measures of last chourus: 1st/2nd chords = 1 measure. last = 2
e|-------------|
B|-------------|
G|-------------|
D|-5-------7---|
A|-3---5---5---|
E|-----3-------|
Related for Rats In The Hallway tab