Song name
# A B C D E F G H I J K L M N O P Q R S T U V W X Y Z

Rancid - Gunshot tab

Note:"This song was made to be played with
two guitars,

  C  F  D  G  F#  D#
e-------------------|
B-------------------|
G-5-----7---------8-|
D-5--3--7--5--4---8-|
A-3--3--5--5--4---6-|
E----1-----3--2-----|

Riff:

e-8--8-8-8-8-8-8---------------8--8-8-8-8-8-8-08--8-08-8-|
B-8--8-8-8-8-8-8-10--8-10--8-8-8--8-8-8-8-8-8-11--8-11-8-|
G----------------10--8-10--8-8---------------------------|
D--------------------------------------------------------| (REPEAT)
A--------------------------------------------------------|
E--------------------------------------------------------|

SOLO:
e--------------------------------------------------------|
B--------------------------------------------------------|
G--------------------------------------------------------|
D--------------------------------2-2-2-2-5-----4-4-4-4-7-|
A----2-2-2-2-5-----2-2-2-2-5--3-------------5------------|
E-3-------------3----------------------------------------|

e--------------------------------------------------------|
B--------------------------------------------------------|
G--------------------------------------------------------|
D--------------------------------2-2-2-2-5-----4-4-4-4-7-|
A----2-2-2-2-5-----2-2-2-2-5--3-------------5------------|
E-3-------------3----------------------------------------|

e----------------------------------------------------------------------------|
B----------------------------------------------------------------------------|
G---4-4-4-4------4-4-4-4----------------9-9-9-9-----------------11-11-11-11--|
D-5---------5--5---------5--5/10---------10--(10-slide-12)------------12/5---|
A----------------------------------------------------------------------------|
E----------------------------------------------------------------------------|

(The following part of solo must be palm-muted)

e-----------------------------------------------------|
B-----------------------------------------------------|
G-----------------------------------------------------|
D------------------------------2-2-2-2------4-4-4-4-7-|
A----2-2-2-2------2-2-2-2---3---------3--5------------|
E-3---------3--3---------3----------------------------|

STRUCTURE:

INTRO CHORDS
RIFF
VERSE
CHORUS
VERSE
CHORUS
BRIDGE
RIFF
PART BEFORE SOLO
SOLO
FINAL CHORUS.
Tap to rate this tab
 
# A B C D E F G H I J K L M N O P Q R S T U V W X Y Z