Song name
# A B C D E F G H I J K L M N O P Q R S T U V W X Y Z

Rancid - International Cover Up tab

Help us improve GuitareTab! Take a short survey!
     F    G    Bb   D    E    
e|---X----X----X----X----X----|
B|---X----X----X----X----X----|
G|---X----X----3----7----9----|
D|---3----5----3----7----9----|
A|---3----5----1----5----7----|
E|---1----3----X----X----X----|



note: h=hammer on
      p=pull of
      b=bend
                                 [hold bend-]
e|-4h5-555555-5-4------------4b/h5b555555555p4-----|
B|----------------6-3--6-3-6-------------------6-3-|
G|-------------------------------------------------|
D|-------------------------------------------------|
A|-------------------------------------------------|
E|-------------------------------------------------|
                                            Ohhh!
e|-4h5--5-4-5-4-5---5-4---5-4---4-1-4-1-4-1-5------|
B|-4h5--5-4-5-4-5-6-5-4-6-5-4-6-4-1-4-1-4-1-5------|
G|----------------6-----6-----6--------------------|
D|-------------------------------------------------|
A|-------------------------------------------------|
E|-------------------------------------------------|

Related for International Cover Up tab