Song name
# A B C D E F G H I J K L M N O P Q R S T U V W X Y Z

Rancid - Lady Liberty tab

Highlighted       Show chord diagrams
    G   A   D   E   Am
e---X---X---2---X---X----|
B---X---X---3---X---1----|
G---X---X---2---X---2----|
D---5---7---X---2---2----|
A---5---7---X---2---X----|
E---3---5---X---0---X----|

s=slide
^=bend

G A                G A
    Lady Liberty       Come down and bleed for me
  G    A       G  A      G A
I want nothing to do with  your crazy world

D
Broken promises, so full of nonsense
    Am
Are blanketed by the time I was all abandoned and alone
         E                                            Am
From the conscious to the outside to shouted Sandinista

G A                G A
    Lady Liberty       Come down and bleed for me
G   A       G  A            G   A
You want me to believe that the streets are paved in gold

D
Some tenderness, then the cold hits
    Am
And then I come to find that the streets aren't paved at all
         E                                            Am
From the conscious to the outside to shouted Sandinista
         E                                            Am
From the conscious to the outside to shouted Sandinista

[No guitar]
From the Kremlin to Afghanistan, to the forgotten ones
The orphans in confusion, to distraught refugees
In the fields of poison ivy, through the famine and disease
You bled my loyalty

GA  GA  GA GA GA    D    Am    E    Am    (w/solo)

SOLO:

e|----3s5-5-5--3s5-5-5-5--3--5-5-5-5--3--5-5-5-5--3--5-5-5-5-5-5-5-----|
B|----3s5-5-5--3s5-5-5-5--3--5-5-5-5--3--5-5-5-5--3--5-5-5-5-5-5-5-----|
G|--------^-^--------^-^-------^-^-^-------^-^-^-----------^-^-^-^-----|
D|---------------------------------------------------------------------|

e|--10-10-10-10-s-8-s-10-10-10-10-s-8-s-10-10-10-10-s-8-s-10-10-10-10--|
B|--10-10-10-10-s-8-s-10-10-10-10-s-8-s-10-10-10-10-s-8-s-10-10-10-10--|
G|---------------------------------------------------------------------|
D|---------------------------------------------------------------------|

e|--5--7--5--7--5--7--7----------------------------|
B|--5--7--5--7--5--7--5--7--5----------------------|
G|-----------------------------7--6--5--4--3--3----|
D|-----------------------------------------------5-|

e|-------------------------------------------------------|
B|-------------------------------------------------------|
G|--9-9-9-9-s-7-s-9-9-9-9-s-7-s-9-9-9-9-s-7-9-9-9-9-s-7--|
D|-------------------------------------------------------|

e|--5-5-5-5-5-s-3--4-5-5-5-4-5-5----5-4-5-5-5-4-5-5-5--|
B|--5-5-5-5-5-s-3--4-5-5-5-4-5-5----5-4-5-5-5-4-5-5-5--|
G|-----------------------------------------------------|
D|-----------------------------------------------------|


G A              G A
    Lady Liberty     Come down and bleed for me
G   A       G  A            G   A
You want me to believe that the streets are paved in gold

D
Oh, you're telling me not to worry
          Am
About the short come of lies, and the high cost of living
         E                                            Am
From the conscious to the outside to shouted Sandinista
         E                                            Am
From the conscious to the outside to shouted Sandinista
E   [N.C.]           Am
Oh, shouted Sandinsita
Tap to rate this tab
# A B C D E F G H I J K L M N O P Q R S T U V W X Y Z