Song name
# A B C D E F G H I J K L M N O P Q R S T U V W X Y Z

Randall Zwarte Band - Good Deal Bad Man tab

This is Good Deal Bad Man by the Randall Zwarte Band.

Randy showed me this himself so don't say its wrong.

Intro (Main Riff)
E------------------------------|---|------|
B------------------------------|---|------|
G------------------------------|---|------|
D-----2--2-5--7-\---------2--2-|5-5|-7-\--|(x8)
A-----2--2-5--7-\---------2--2-|5-5|-7-\--|
E---0----------------0-3b------|---|------|
                               |P M|

Then Eddie and Randy switch into a palm-muted version like so:
E-----------------------------------------|
B-----------------------------------------|
G-----------------------------------------|
D-----2-2-2-5-5-7v-\-----2-2-2---5/7v-\---|(x2)
A-----2-2-2-5-5-7v-\-----2-2-2---5/7v-\---|
E---0-----------------3b------------------|

Verse:
E-----------------------------------------------|
B-----------------------------------------------|
G---4-------2------------------/------PM-----\--| then they do the
D---4-------2-----------------------------------| main riff twice.
A---2-------0---------5--4-2---2-2-2-2-2-2-2-2--|
E------------------------------0-0-0-0-0-0-0-0--|

that's about all i have...this is my first tab by the way...
hope you like it!

PS. if you don't know the RZB and are interested, check 'em out at:
http://www.zwarte.com/index.php
Tap to rate this tab
 
# A B C D E F G H I J K L M N O P Q R S T U V W X Y Z