Song name
# A B C D E F G H I J K L M N O P Q R S T U V W X Y Z

Random Dysfunction - D O S tab

Submitted by the guitarist himself. It's right
A new local orlando band.

Verse:
e--------------------------------------------------
b--------------------------------------------------
g--------------------------------------------------
d---------------------------77777-7777-------------
a---77777-6-77777-6-77777-6-55555-5555-------------
E---55555-4-55555-4-55555-4------------------------
   |_________Repeat X2___________|

e--------------------------------------------------
b--------------------------------------------------
g--------------------------------------------------
d----------------------------77777-7777------------
a--6-77777-6-77777-6-77777-6-55555-5555------------
E--4-55555-4-55555-4-55555-4-----------------------
   |_________Repeat X2___________| let^ring

Chorus:
e--------------------------------------------------
b--------------------------------------------------
g--------------------------------------------------
d--------------------------------------------------
a-33333-7777-33333-7777-33333-7777-33333-777-------
E-11111-5555-11111-5555-11111-5555-11111-555-------
Tap to rate this tab
 
# A B C D E F G H I J K L M N O P Q R S T U V W X Y Z