Song name
# A B C D E F G H I J K L M N O P Q R S T U V W X Y Z

Random Hand - Play Some Ska tab

-----------------------------------------------------------------------------
			     Play Some Ska - Random Hand
-----------------------------------------------------------------------------
Tabbed by:Maximilliano2

Tuning: Standard

Intro:
e|--3-x-3-x-3-x-3~---3-x-3-x-3-1/3-----------------------------|
B|--3-x-3-x-3-x-3~---3-x-3-x-3-1/3-----------------------------|
G|--3-x-3-x-3-x-3~---3-x-3-x-3-1/3-----------------------------|
D|--5-x-5-x-5-x-5~---5-x-5-x-5-3/5-----------------------------|
A|-------------------------------------------------------------|
E|-------------------------------------------------------------|

Verse                              x3
e|--3-x-3-x-9--x-9--x-8--x-8--x-6-x-6-------------3-------|
B|--3-x-3-x-9--x-9--x-8--x-8--x-6-x-6-------------3-------|
G|--3-x-3-x-10-x-10-x-8--x-8--x-7-x-7-------------3-------|
D|--5-x-5-x-11-x-11-x-10-x-10-x-8-x-8-------------5-------|
A|--------------------------------------------------------|
E|--------------------------------------------------------|

e|--3-x-3-x-9--x-9--x-8--x-8--x-6-x-6---------------------| x6
B|--3-x-3-x-9--x-9--x-8--x-8--x-6-x-6---------------------|
G|--3-x-3-x-10-x-10-x-8--x-8--x-7-x-7---------------------|
D|--5-x-5-x-11-x-11-x-10-x-10-x-8-x-8---------------------|
A|--------------------------------------------------------|
E|--------------------------------------------------------|

Pre-chorus
e|--8--x-8--x-8--x-8/9---x-9--x-9--x-9\8----------------------------| x5
B|--8--x-8--x-8--x-8/9---x-9--x-9--x-9\8----------------------------|
G|--8--x-8--x-8--x-8/10--x-10-x-10-x-10\8---------------------------|
D|--10-x-10-x-10-x-10/11-x-11-x-11-x-11\10--------------------------|
A|------------------------------------------------------------------|
E|------------------------------------------------------------------|

e|--8--x-8--x-8--x-8/9---------------------------|
B|--8--x-8--x-8--x-8/9---------------------------|
G|--8--x-8--x-8--x-8/10--------------------------|
D|--10-x-10-x-10-x-10/11-------------------------|
A|-----------------------------------------------|
E|-----------------------------------------------|


Chorus
e|----------------------------------------------------------| x4
B|----------------------------------------------------------|
G|------------6--5---5-5-5-3--------------------------------|
D|--5---5-5-5-6--5---5-5-5-3--------------------------------|
A|--5---5-5-5-4--3---3-3-3-1--------------------------------|
E|--3---3-3-3-----------------------------------------------|

Post-chorus
e|-------------------------------------------------------------------|
B|-------------------------------------------------------------------|
G|------------6-------------6-------------6--------------------------|
D|--5---5-5-5-6---5---5-5-5-6---5---5-5-5-6---5-5--5-5---------------|
A|--5---5-5-5-4---5---5-5-5-4---5---5-5-5-4---5-5--5-5---------------|
E|--3---3-3-3-----3---3-3-3-----3---3-3-3-----3-3--3-3---------------|

Verse
e|--3-x-3-x-9--x-9--x-8--x-8--x-6-x-6---------------------| x4
B|--3-x-3-x-9--x-9--x-8--x-8--x-6-x-6---------------------|
G|--3-x-3-x-10-x-10-x-8--x-8--x-7-x-7---------------------|
D|--5-x-5-x-11-x-11-x-10-x-10-x-8-x-8---------------------|
A|--------------------------------------------------------|
E|--------------------------------------------------------|

Pre-chorus
e|--8--x-8--x-8--x-8/9---x-9--x-9--x-9\8----------------------------|
B|--8--x-8--x-8--x-8/9---x-9--x-9--x-9\8----------------------------|
G|--8--x-8--x-8--x-8/10--x-10-x-10-x-10\8---------------------------|
D|--10-x-10-x-10-x-10/11-x-11-x-11-x-11\10--------------------------|
A|------------------------------------------------------------------|
E|------------------------------------------------------------------|

e|--8--x-8--x-8--x-8/9---------------------------|
B|--8--x-8--x-8--x-8/9---------------------------|
G|--8--x-8--x-8--x-8/10--------------------------|
D|--10-x-10-x-10-x-10/11-------------------------|
A|-----------------------------------------------|
E|-----------------------------------------------|

e|--------------------------------------------------------------------------|
B|--------------------------------------------------------------------------|
G|--------------------------------------------------------------------------|
D|------------------------------------------------------------5-5--5-5------|
A|------1111-3333-4444------1111-3333-4444----1111-3333-4444--5-5--5-5------|
E|----33------------------33----------------33----------------3-3--3-3------|

Chorus
e|----------------------------------------------------------| x4
B|----------------------------------------------------------|
G|------------6--5---5-5-5-3--------------------------------|
D|--5---5-5-5-6--5---5-5-5-3--------------------------------|
A|--5---5-5-5-4--3---3-3-3-1--------------------------------|
E|--3---3-3-3-----------------------------------------------|

Post-chorus
e|----------------------------------------------------------------------|
B|----------------------------------------------------------------------|
G|------------6-------------6-------------6------------6----------------|
D|--5---5-5-5-6---5---5-5-5-6---5---5-5-5-6---5-5--5-5-6----------------|
A|--5---5-5-5-4---5---5-5-5-4---5---5-5-5-4---5-5--5-5-4----------------|
E|--3---3-3-3-----3---3-3-3-----3---3-3-3-----3-3--3-3------------------|


e|-------------------------------------------------------------------|
B|-------------------------------------------------------------------|
G|------------6-------------6-------------6--------------------------|
D|--5---5-5-5-6---5---5-5-5-6---5---5-5-5-6---5-5--5-5---------------|
A|--5---5-5-5-4---5---5-5-5-4---5---5-5-5-4---5-5--5-5---------------|
E|--3---3-3-3-----3---3-3-3-----3---3-3-3-----3-3--3-3---------------|

Bridge
e|--3-x-3-x-3-x-3---8-x-8--x-8--x-8\3-----------------------------------------|  x4
B|--3-x-3-x-3-x-3---8-x-8--x-8--x-8\3-----------------------------------------|
G|--3-x-3-x-3-x-3---8-x-8--x-8--x-8\3-----------------------------------------|
D|--5-x-5-x-5-x-5--10-x-10-x-10-x-10\5----------------------------------------|
A|----------------------------------------------------------------------------|
E|----------------------------------------------------------------------------|

Pre-chorus
e|--8--x-8--x-8--x-8/9---x-9--x-9--x-9\8----------------------------| x3
B|--8--x-8--x-8--x-8/9---x-9--x-9--x-9\8----------------------------|
G|--8--x-8--x-8--x-8/10--x-10-x-10-x-10\8---------------------------|
D|--10-x-10-x-10-x-10/11-x-11-x-11-x-11\10--------------------------|
A|------------------------------------------------------------------|
E|------------------------------------------------------------------|

e|--8--x-8--x-8--x-8/9---------------------------|
B|--8--x-8--x-8--x-8/9---------------------------|
G|--8--x-8--x-8--x-8/10--------------------------|
D|--10-x-10-x-10-x-10/11-------------------------|
A|-----------------------------------------------|
E|-----------------------------------------------|

Chorus
e|----------------------------------------------------------| x4
B|----------------------------------------------------------|
G|------------6--5---5-5-5-3--------------------------------|
D|--5---5-5-5-6--5---5-5-5-3--------------------------------|
A|--5---5-5-5-4--3---3-3-3-1--------------------------------|
E|--3---3-3-3-----------------------------------------------|

Post-chorus
e|----------------------------------------------------------------------|
B|----------------------------------------------------------------------|
G|------------6-------------6-------------6------------6----------------|
D|--5---5-5-5-6---5---5-5-5-6---5---5-5-5-6---5-5--5-5-6----------------|
A|--5---5-5-5-4---5---5-5-5-4---5---5-5-5-4---5-5--5-5-4----------------|
E|--3---3-3-3-----3---3-3-3-----3---3-3-3-----3-3--3-3------------------|


e|-------------------------------------------------------------------|
B|-------------------------------------------------------------------|
G|------------6-------------6-------------6--------------------------|
D|--5---5-5-5-6---5---5-5-5-6---5---5-5-5-6---5-5--5-5---------------|
A|--5---5-5-5-4---5---5-5-5-4---5---5-5-5-4---5-5--5-5---------------|
E|--3---3-3-3-----3---3-3-3-----3---3-3-3-----3-3--3-3---------------|

Outro
e|-----------------------------------------|
B|-----------------------------------------|
G|-----------------------------------------|
D|--5-5--8-8--10-10-11-11---5-5--5-5-------|
A|--5-5--8-8--10-10-11-11---5-5--5-5-------|
E|--3-3--6-6--8--8--9--9----3-3--3-3-------|
Tap to rate this tab
 
# A B C D E F G H I J K L M N O P Q R S T U V W X Y Z