Guitaretab - guitar tabs
Song name
# A B C D E F G H I J K L M N O P Q R S T U V W X Y Z

Random Hero - Pull The Trigger tab



INTRO
Part 1
D--------------------------------------------------------------|
A--------------------------------------------------------------|
F---------------5-5-5-5-5-5------------------------------------|
C--2-2-2-2-2-2--5-5-5-5-5-5--5-5-5-5-5-5--4-4-4-4-4-4----------|
G--2-2-2-2-2-2--5-5-5-5-5-5--5-5-5-5-5-5--5-5-5-5-5-5----------|
C--2-2-2-2-2-2---------------5-5-5-5-5-5--4-4-4-4-4-4-0-0--0-0-|
Part 2
D---------------------------------------------------------|
A---------------------------------------------------------|
F--------------5-5-5-5-5-5--7-7-7-7-7-7-------------------|
C-2-2-2-2-2-2--5-5-5-5-5-5--7-7-7-7-7-7--5-5-5-5--4-4-4-4-|
G-2-2-2-2-2-2--5-5-5-5-5-5--7-7-7-7-7-7--5-5-5-5--5-5-5-5-|
C-2-2-2-2-2-2----------------------------5-5-5-5--4-4-4-4-|
[ Tab from: http://www.guitaretab.com/r/random-hero/168560.html ]
Verse
D----------------------------------|
A----------------------------------|
F----------------------------------|
C----------------------5-5-5-3-3-3-|
G--------------3-------5-5-5-3-3-3-|
C-2-0-2--2-0-2---2-0-2-5-5-5-3-3-3-|

D------------------------------------|
A------------------------------------|
F------------------------------------|
C------------------------------------|
G-------------3------333-000-222-000-|
C-2-0-2--2-0-2--2-0-2----------------|

D----------------------------------------------------|
A----------------------------------------------------|
F2-2-2-2-2-2--4-4-4-4-4-4--5-5-5-5-5-5--8-8-8-8-8-8--|
C-2-2-2-2-2-2--4-4-4-4-4-4--5-5-5-5-5-5--9-9-9-9-9-9-|
G-0-0-0-0-0-0--2-2-2-2-2-2--3-3-3-3-3-3--6-6-6-6-6-6-|
C----------------------------------------------------|

Repeat the Intro minus the part 2
Related for Pull The Trigger tab
Advertisement will be closed in 10 seconds