Guitaretab - guitar tabs
Song name
# A B C D E F G H I J K L M N O P Q R S T U V W X Y Z

Random Ninjas - Random Journey tab

Intro *Lead Guitar*
E|-------------------------12-----------------------------------------|
B|-----------------12---12----10h12p10-9h10p9-9h10p9----------------9-|
G|---------7-9---9----9------------------------------11-9-11-9h11p9---|
D|-------7-----7------------------------------------------------------|
A|-----7--------------------------------------------------------------|
E|-5-5----------------------------------------------------------------|

E|--------------------------------------------------------------------|
B|--------12--------9b------------------------------------------------|
G|-9h11p9----9h11p9---------------------------------------------------|
D|--------------------------------------------------------------------|
A|--------------------------------------------------------------------|
E|--------------------------------------------------------------------|

E|-------------------------12-----------------------------------------|
B|-----------------12---12----10h12p10-9h10p9-9h10p9----------------9-|
G|---------7-9---9----9------------------------------11-9-11-9h11p9---|
D|-------7-----7------------------------------------------------------|
A|-----7--------------------------------------------------------------|
E|-5-5----------------------------------------------------------------|

E|------------------12------------------------------------------------|
B|--------12-----------10b/12b/10b/13b/10b/12b/10b--------------------|
G|-9h11p9----9h11p9---------------------------------------------------|
D|--------------------------------------------------------------------|
A|--------------------------------------------------------------------|
E|--------------------------------------------------------------------|

*Rhythm Guitar*
E|-------------------------------------------------------------------|
B|-------------------------------------------------------------------|
G|-------------7--7--4-----------------------------------------------|x
D|-7--6--4--2--7--7--4--2--------------------------------------------|2
A|-7--6--4--2--5--4--2--2--------------------------------------------|
E|-5--4--2--0-----------0--------------------------------------------|
*Play each chord 6 times*

E|--------------------------------------------------------------------|
B|--------------------------------------------------------------------|
G|--------------------------------------------------------------------|
D|-2--5---------------------------------------------------------------|
A|-2--5---------------------------------------------------------------|
E|-0--3---------------------------------------------------------------|
*Play each chord palm muted 12 times*

E|-------------------------------------------------------------------|
B|-------------------------------------------------------------------|
G|-------------7--7--4-----------------------------------------------|x
D|-7--6--4--2--7--7--4--2--------------------------------------------|2
A|-7--6--4--2--5--4--2--2--------------------------------------------|
E|-5--4--2--0-----------0--------------------------------------------|
*Play each chord 6 times*  **Palm Mute**
[ Tab from: http://www.guitaretab.com/r/random-ninjas/102313.html ]
E|---------------------------------|  |------------------------------|
B|---------------------------------|x |------------------------------|
G|----7----------------------------|3 |-7/9-9-9----------------------|x
D|-4--7----------------------------|  |-7/9-9-9----------------------|4
A|-4--5----------------------------|  |-5/7-7-7----------------------|
E|-2-------------------------------|  |------------------------------|
*Play each chord 6 times*

~Intro Riff~

*Behind Lead Guitar*
E|-------------------------------------------------------------------|
B|-------------------------------------------------------------------|
G|-------------7--7--4-----------------------------------------------|x
D|-7--6--4--2--7--7--4--2--------------------------------------------|4
A|-7--6--4--2--5--4--2--2--------------------------------------------|
E|-5--4--2--0-----------0--------------------------------------------|
*Play each chord 6 times*

E|--------------------------------------------------------------------|
B|--------------------------------------------------------------------|
G|--------------------------------------------------------------------|
D|-2--5---------------------------------------------------------------|
A|-2--5---------------------------------------------------------------|
E|-0--3---------------------------------------------------------------|
*Play each chord palm muted 12 times*

E|-------------------------------------------------------------------|
B|-------------------------------------------------------------------|
G|-------------7--7--4-----------------------------------------------|x
D|-7--6--4--2--7--7--4--2--------------------------------------------|2
A|-7--6--4--2--5--4--2--2--------------------------------------------|
E|-5--4--2--0-----------0--------------------------------------------|
*Play each chord 6 times*  **Palm Mute**

E|---------------------------------|  |------------------------------|
B|---------------------------------|  |------------------------------|
G|----7----------------------------|x |-7/9-9-9----------------------|x
D|-4--7----------------------------|3 |-7/9-9-9----------------------|4
A|-4--5----------------------------|  |-5/7-7-7----------------------|
E|-2-------------------------------|  |------------------------------|
*Play each chord 6 times*

E|-------------------------------------------------------------------|
B|-------------------------------------------------------------------|
G|-------------7--7--4-----------------------------------------------|x
D|-7--6--4--2--7--7--4--2--------------------------------------------|2
A|-7--6--4--2--5--4--2--2--------------------------------------------|
E|-5--4--2--0-----------0--------------------------------------------|
*Play each chord 6 times*


E|-------------------------------------------------------------------|
B|-------------------------------------------------------------------|
G|---------------7---------------------------------------------------|x
D|-4-4-4--2-2-2--7---------------------------------------------------|4
A|-4-4-4--2-2-2--5---------------------------------------------------|
E|-2-2-2--0-0-0------------------------------------------------------|

*When played live, this is where the band is introduced, and the riff will start at itís 
point, but on the recorded version it is started at the 3rd chord of the riff.*

**Now all thatís left are the first 2 measures to play for the rest of the song, if you 
the song itíll be easy to find out what to play when.**
----
Note #1
The Lead Riff is basically the same when played both times except for a variation during 
second time.  Lead riff is played with a wah effect.
Related for Random Journey tab