Song name
# A B C D E F G H I J K L M N O P Q R S T U V W X Y Z

Random Ninjas - Winter Winds tab

Winter Winds
Written By: Full Metal Ninja
Transcribed By: Death Metal Ninja

Clean
E|-------------------------------------------------------------------|
B|---5-----5---5-5-5---7-----7---7-7-7-------------------------------|
G|---5-----5---5-5-5---7-----7---7-7-7-------------------------------|x
D|-------------------------------------------------------------------|6
A|-------------------------------------------------------------------|
E|-5---5-5---5-------7---7-7---7-------------------------------------|
*This is played with your fingers, thumb for the bass string, then index and
 middle for the G&B strings*

E|-------------------------------------------------------------------|
B|---5-5-5-5---7-7-7---5-5-5-5---7-7-7-------------------------------|
G|---5-5-5-5---7-7-7---5-5-5-5---7-7-7-------------------------------|x
D|-------------------------------------------------------------------|3
A|-------------------------------------------------------------------|
E|-5---------7-------5---------7-------------------------------------|
*This is played with a soft strum*

Chorus
Distortion
E|-------------------------------------------------------------------|
B|-------------------------------------------------------------------|
G|------7---------9--------------------------------------------------|x
D|-7----7-x7-9----9--------------------------------------------------|4
A|-7-x5-5----9-x5-7--------------------------------------------------|
E|-5---------7-------------------------------------------------------|

First Lead
Clean
E|---------------------------------------------------------5-8-7-5-7-5|
B|-------------------------------------------------------8------------|
G|----12-14-14b-14-12----12---------7-9-------------------------------|
D|-14-----------------14----14----9-----12-11-9-12-9-7-9--------------|
A|--------------------------------------------------------------------|
E|--------------------------------------------------------------------|

E|--------------------------------------------------------------------|
B|-8-10b---8-7-5---5--------------------------------------------------|
G|---------------7----------------------------------------------------|
D|--------------------------------------------------------------------|
A|--------------------------------------------------------------------|
E|--------------------------------------------------------------------|

Second Lead
Clean
E|--------------------------------------------------------------------|
B|--------------------------------------------------------------------|
G|----12-14-12h11h9-12-9-7---7-8-9-12-11-9-7-9-9b-7---7-------7-7-7-9-|
D|-14----------------------9------------------------9---9-8-7---------|
A|--------------------------------------------------------------------|
E|--------------------------------------------------------------------|


E|--------------------------------------------------------------------|
B|--------------------------------------------------------------------|
G|-12-14b-14b-14b-12-9-12-9-12-7-9------------------------------------|
D|--------------------------------------------------------------------|
A|--------------------------------------------------------------------|
E|--------------------------------------------------------------------|


Tap to rate this tab
 
# A B C D E F G H I J K L M N O P Q R S T U V W X Y Z