Song name
# A B C D E F G H I J K L M N O P Q R S T U V W X Y Z

Random Society - Random Days tab

-12b13-12b13-12b13-12b13--|
--------------------------|
--------------------------|
--------------------------|     x2
--------------------------|
--------------------------|

12b13-12b13-12b13-12b13-15--|
----------------------------|
----------------------------|
----------------------------|
----------------------------|
----------------------------|

---------------------------------|
---------------------------------|
---------------------------------|
---------------------------------|   x5
-2----------------2-2-2-2-2-2----|
-0-0-0-0-0-0-0-0--1-0-1-0-1-0----|

-----------------------------------------------|
-----------------------------------------------|
-----------------------------------------------|
--5-5-5-5-5-5-5--4-4-4-4-4-4-4-----------------|
--3-3-3-3-3-3-3--2-2-2-2-2-2-2-----------------|

----------------------------------------------------|
----------------------------------------------------|
----------------------------------------------------|
--11/=----------------------------------------------|
--12/=----------------------------------------------|
  pm
---------------------------------------------------|
---------------------------------------------------|
---------------------------------------------------|
-2--2-2----5-0-5-0-5-0-5-0-3-0-3-0-3-0-03-0-30-3-0-|
-0--0-0--------------------------------------------|

---------------------------------------------------|
---------------------------------------------------|
---------------------------------------------------|
-12/-----------------------------------------------|
-12/-----------------------------------------------|

solo           x7           x5
---12-13wh--12b14b15----15b17b18------22wh-22-21-20wh-|
------------------------------------------------------|
------------------------------------------------------|
------------------------------------------------------|
------------------------------------------------------|

-3-0-2-1-0-0-0-0-1wh---------------------------------------|
-----------------------------------------------------------|
-----------------------------------------------------------|
-----------------------------------------------------------|
-----------------------------------------------------------|

-------------------------------------------------|
-------------------------------------------------|
-------------------------------------------------|
----2--------------------------------------------|
--/-0-0-3-5-0-3-5-03-5-0-5-7-0-5-7-0-5-7-7-6wh---|

----------------------------------------------------------------|
----------------------------------------------------------------|
----------------------------------------------------------------|
--2-2-2-2-2-2-2-2-2-2-2-3-3-4-4-2-------------------------------|
--0-0-0-0-0-0-0-0-0-0-0-1-1-2-2-0-------------------------------|

well this is our first song we recommend that download first the song if you want to 
just mail me carlosalex8890@hotmail.com
keep rocking
Tap to rate this tab
 
# A B C D E F G H I J K L M N O P Q R S T U V W X Y Z